Your One-Stop Source For
Music Lyrics
Bass and Guitar Tabs
and More...
>Music Lyrics Bass and Guitar Tabs

 

The Tabs Are Below

Learn To Read Tab
Chords Handbook
Corrections & Additions
Get Official Tab
Soundgarden tabs @ 911Tabs

Nothing To Say

Dropped D Tuning: DADGBe

Note: Depending on how heavy you want this to sound, play either single

strings or bar chords.

For example, where I have e||----------|| try playing it like: e||----------||

B||----------|| B||----------||

G||----------|| G||----------||

D||----------|| D||-9-8--12--||

A||----------|| A||-9-8--12--||

D||-9-8--12--|| D||-9-8--12--||

 

INTRO:

Just pluck the open D string... it should match Chris' vocals when he

calmly repeats "nothing.." Listen to the CD for the rhythm.

e||-----||

B||-----||

G||-----||

D||--0--||

A||-----||

D||-----||

 

If you want to play the BASS part, play your low D string something like this:

e||---------------------------------||

B||---------------------------------||

G||---------------------------------||

D||---------------------------------||

A||---------------------------------||

D||--0--0-0-3----0-0---0--3--2-2----||

 

BRIDGE:

e||---------------------------------||

B||---------------------------------||

G||---------------------------------||

D||---------------------------------||

A||---------------------------------||

D||--0--0-0-2~-----0--0-0-5-4~------||

 

VERSE: Be sure to use a lot of vibrato.

e||--------------------------------------||

B||--11--11-11-9---11-11-11/15-15-12-11--||

G||--------------------------------------||

D||--------------------------------------||

A||--------------------------------------||

D||--------------------------------------||

 

REPEAT BRIDGE 1X

 

CHORUS

e||-------------------------------------------------------||

B||-------------------------------------------------------||

G||-------------------------------------------------------||

D||-------------------------------------------------------||

A||-------------------------------------------------------||

D||-10-9--12-----11--9-8--12b-11---9-8--6-7--7-6--0--2-2--||

 

REPEAT BRIDGE with slight variation:

e||---------------------------------||

B||---------------------------------||

G||---------------------------------||

D||---------------------------------||

A||-----------2~--------------------||

D||--0--0-0-2------0--0-0-5-4~------||

 

REPEAT VERSE

REPEAT BRIDGE

REPEAT CHORUS

REPEAT BASS line and a bunch of feedback

 

REPEAT BRIDGE with slight variation:

e||-------------------------------||

B||-------------------------------||

G||-------------------------------||

D||----------2tr3-----------------||

A||-------------------------------||

D||--0--0-0--------0--0-0-5-4~----||

tr = trill

 

OUTTRO: Just repeat and slow down the tempo:

e||-------||

B||-------||

G||-------||

D||--5-4--||

A||--5-4--||

D||--5-4--||

Sent by Jordan Snodgrass (jasnodgr@ucsd.edu).

 

 

Return to my to my Soundgarden tabs page

The Tablature is Copyright its respective owners.

Sign Up For My Newsletter
Subscribe | Unsubscribe

Site Map | Disclaimer | Privacy Policy | Media Kit | Submissions/Corrections

Website © 2000-2014 mattsmusicpage.com. All rights reserved.

Legal & DMCA: Matt's Music Page has been providing lyrics and tabs in a legal way, paying royalties each year to a few organizations. Then, all lyrics and tabs were removed from the site. Now, there's a new owner to the site, which purchased it August 26, 2014, and he is in negotiation to obtain licensing from BMI at the moment. If you have a specific DMCA request -- please do not hesitate to contact me via the contact button on top. I will do my very best to keep this site fully legal.

Get our toolbar!

 

BRAND NEW KEY OF C HOHNER MINI HARMONICA HARP KEYRING KEYCHAIN KEY RING CHAIN
$8.21
BRAND NEW KEY OF C HOHNER MINI HARMONICA HARP KEYRING KEYCHAIN KEY RING CHAIN picture


RISING SONS BAND *2X3 FRIDGE MAGNET* VOCALS GUITAR MANDOLIN DOBRO HARMONICA SONG
$3.99
RISING SONS BAND *2X3 FRIDGE MAGNET* VOCALS GUITAR MANDOLIN DOBRO HARMONICA SONG picture


Vtg Christmas Angel Baby Girl W Harmonica Boy W Book SET OF 2 W GOLD WINGS
$125.0
Vtg Christmas Angel Baby Girl W Harmonica Boy W Book SET OF 2 W GOLD WINGS  picture


Beautiful Hand Carved Jewelry Trinket Jewelry Box Harmonica Case Bone And Brass
$14.5
Beautiful Hand Carved Jewelry Trinket Jewelry Box Harmonica Case Bone And Brass picture


BRAND NEW* HOHNER BOB DYLAN SIGNATURE LIMITED EDITION HARMONICA COLLECTORS ITEM
$140.19
BRAND NEW* HOHNER BOB DYLAN SIGNATURE LIMITED EDITION HARMONICA COLLECTORS ITEM picture