Your One-Stop Source For
Music Lyrics
Bass and Guitar Tabs
and More...
Music Lyrics Bass and Guitar Tabs

 

The Tabs Are Below

Learn To Read Tab
Chords Handbook
Corrections & Additions
Get Official Tab
Soundgarden tabs @ 911Tabs

Black Hole Sun

 

[This was created with TabIt version 1.19]

 

E :---------------------|---------------------------------|

B :---------------------|---------------------------------|

G :------5--------------|----5--------------------5-------|

D :----5-----5----------|--5------------------3-------3---|

A :--5---------5--------|5----------------3-------------3-|

D :5--------------5---8-|---------------3-----------------|

 

 

E :---------------------|---------------------------------|

B :---------------------|---------------------------------|

G :--------------15-/19-|------19-/21-\15---\14-\12-------|

D :---------------------|---------------------------------|

A :---------------------|---------------------------------|

D :---------------------|---------------------------------|

With Leslie Effect

 

=============================================================================

 

E :-----------------------|--------------------|----------------||

B :-----------------------|--------------------|----------------||

G :-----------4-----------|----1---------------|----2-----------||

D :---------2-------------|--1-----1-----------|--0-------------||

A :-------2---------------|1-----------1-------|3---------------||

D :0---2------------0---1-|--------------1---0-|----------------||

 

 

E :-----------------------|--------------------|----------------||

B :-----------------------|--------------------|----------------||

G :--(12)-------------/15-|----------/16---/19-|----------------||

D :-----------------------|--------------------|----------------||

A :-----------------------|--------------------|----------------||

D :-----------------------|--------------------|----------------||

 

 

=============================================================================

 

E :| ------12------------|--------10---------|---------13------------|

B :| ---12------12----12-|-----11------------|------13------13----13-|

G :|*12------------12----|--12---------------|---10------------10----|

D :|*--------------------|-------------------|-----------------------|

A :| --------------------|-------------------|-----------------------|

D :| --------------------|-------------------|-----------------------|

Leslie

 

E :| --------------------|-------------------|-----------------------|

B :| --------------------|-------------------|-----------------------|

G :|*--------------------|-------------------|-----------------------|

D :|*--------------------|-------------------|-----------------------|

A :| --------------------|-------------------|-----------------------|

D :| --------------------|-------------------|-----------------------|

 

 

=============================================================================

 

E :-----------12-------------|---11--------------------|

B :--------12----------------|11------11----11------10-|

G :-10-/12----------------12-|-----------12------12----|

D :--------------------------|-------------------------|

A :--------------------------|-------------------------|

D :--------------------------|-------------------------|

 

 

E :--------------------------|-------------------------|

B :--------------------------|-------------------------|

G :--------------------------|-------------------------|

D :--------------------------|-------------------------|

A :--------------------------|-------------------------|

D :--------------------------|-------------------------|

 

 

=============================================================================

 

E :10------------------12-------|---10----------11-----|

B :-----10----10----12----------|12----------13--------|

G :--------12----12-------12-10-|------10-13-----------|

D :-----------------------------|----------------------|

A :-----------------------------|----------------------|

D :-----------------------------|----------------------|

 

 

E :-----------------------------|----------------------|

B :-----------------------------|----------------------|

G :-----------------------------|----------------------|

D :-----------------------------|----------------------|

A :-----------------------------|----------------------|

D :-----------------------------|----------------------|

 

 

=============================================================================

 

E :-----------12--------|------------10------|

B :--------12------12---|-12------11---------|

G :-----12------------12|------12------------|

D :---------------------|--------------------|

A :---------------------|--------------------|

D :---------------------|--------------------|

 

 

E :---------------------|--------------------|

B :---------------------|--------------------|

G :---------------------|--------------------|

D :---------------------|--------------------|

A :---------------------|--------------------|

D :---------------------|--------------------|

 

 

=============================================================================

 

E :---------13----------------------12---|-----------11---------|

B :------13------13----13--------12------|--------11----11----11|

G :---10------------10----10-/12---------|-----12----------12---|

D :--------------------------------------|----------------------|

A :--------------------------------------|----------------------|

D :--------------------------------------|----------------------|

 

 

E :--------------------------------------|----------------------|

B :--------------------------------------|----------------------|

G :--------------------------------------|----------------------|

D :--------------------------------------|----------------------|

A :--------------------------------------|----------------------|

D :--------------------------------------|----------------------|

 

 

=============================================================================

 

E :-------10---------------|-12----------10---------|-11--------------|

B :----10----10----10----12|----------12----------13|-----------------|

G :-12----------12----12---|----12-10-------10-13---|-----------------|

D :------------------------|------------------------|-----------------|

A :------------------------|------------------------|-----------------|

D :------------------------|------------------------|----------------1|

No

 

E :------------------------|------------------------|-----------------|

B :------------------------|------------------------|-----------------|

G :------------------------|------------------------|-----------------|

D :------------------------|------------------------|-----------------|

A :------------------------|------------------------|-----------------|

D :------------------------|------------------------|-----------------|

 

 

=============================================================================

 

E :----------------|----------------|-----------------|----------------|

B :----------------|----------------|-----------------|-------3--------|

G :-----1----------|-----2----------|-----------------|-----3-----3----|

D :---1-----1------|---0-----0------|------5-------5--|---3---------3--|

A :-1---------1----|-3---------3----|----5-------5----|-1-------------1|

D :-------------1-0|-------------0-3|-/5-----5-3-----3|----------------|

Leslie

 

E :----------------|----------------|-----------------|----------------|

B :----------------|----------------|-----------------|----------------|

G :----------------|----------------|-----------------|----------------|

D :----------------|----------------|-----------------|----------------|

A :----------------|----------------|-----------------|----------------|

D :----------------|----------------|-----------------|----------------|

 

 

=============================================================================

 

E :----------------|----------------|------------------|---------------- 1|

B :----------------|-----2----------|-5---5-h6-p5------|-7-------------- ||

G :-------1--------|---0------------|-5-------------5--|-7--------------*||

D :-----1-----1----|-3-------0------|-5-----------5----|-7--------------*||

A :---1---------1-0|-----------3----|-3----------------|-5-------------- ||

D :-1--------------|-------------0--|------------------|---------------- ||

This part is only played on the

 

E :----------------|----------------|------------------|---------------- 1|

B :----------------|----------------|------------------|---------------- ||

G :----------------|----------------|------------------|----------------*||

D :----------------|----------------|------------------|----------------*||

A :----------------|----------------|------------------|---------------- ||

D :----------------|----------------|------------------|---------------- ||

 

 

=============================================================================

 

E :-----------------|----------------|----------------|----------------|

B :5---5-h6-p5------|-------3--------|----------------|----------------|

G :5-----------5---5|-----3-----3---3|-------1--------|-------2--------|

D :5-------------5--|---3---------3--|-----1-----1----|-----0-----0----|

A :3----------------|-1--------------|---1---------1--|---3---------3--|

D :-----------------|----------------|-1-------------1|-0-------------0|

1st repeat

 

E :-----------------|----------------|----------------|----------------|

B :-----------------|----------------|----------------|----------------|

G :-----------------|----------------|----------------|----------------|

D :-----------------|----------------|----------------|----------------|

A :-----------------|----------------|----------------|----------------|

D :-----------------|----------------|----------------|----------------|

 

 

=============================================================================

 

E :-----------------|----------------|----------------|----------------|

B :-----------------|---------3------|----------------|----------------|

G :-----------------|-------3-----3--|---------1------|---------2------|

D :--------5-------5|-----3---------3|-------1-----1--|-------0-----0--|

A :------5-------5--|---1------------|-1---1---------1|-----3---------3|

D :-3-/5-----5-3----|-3--------------|---1------------|-1-0------------|

 

 

E :-----------------|----------------|----------------|----------------|

B :-----------------|----------------|----------------|----------------|

G :-----------------|----------------|----------------|----------------|

D :-----------------|----------------|----------------|----------------|

A :-----------------|----------------|----------------|----------------|

D :-----------------|----------------|----------------|----------------|

 

 

=============================================================================

 

E :-------------------|------------------|-------------------|

B :---5-5-h6-p5------3|-3-h4-p3-------7-7|-h8-p7-------5-5-h6|

G :---5---------5----3|---------3---3-7--|-------7---7-5-----|

D :---5-----------5-\3|-----------3---7--|---------7---5-----|

A :---3--------------1|---------------5--|-------------3-----|

D :-0-----------------|------------------|-------------------|

 

 

E :-------------------|------------------|-------------------|

B :-------------------|------------------|-------------------|

G :-------------------|------------------|-------------------|

D :-------------------|------------------|-------------------|

A :-------------------|------------------|-------------------|

D :-------------------|------------------|-------------------|

 

 

=============================================================================

 

E :--------------------|----------------|--------------------|

B :-p5------3-3-h4-p3--|-----7-7-7-7----|--------------------|

G :----5----3---------3|---3-7-7-7-7----|--------------------|

D :------5-\3----------|-3---7-7-7-7----|--------------------|

A :---------1----------|-----5-5-5-5----|--------------------|

D :--------------------|----------------|--------------------|

 

 

E :--------------------|----------------|--------------------|

B :--------------------|--------------5-|5-h6-p5------3-3-h4-|

G :--------------------|--------------5-|--------5----3------|

D :--------------------|--------------5-|----------5-\3------|

A :--------------------|--------------3-|-------------1------|

D :--------------------|----------------|--------------------|

 

 

=============================================================================

 

E :-------------------|------------------|-------------------|

B :-------------------|------------------|-------------------|

G :-------------------|------------------|-------------------|

D :-------------------|------------------|-------------------|

A :-------------------|------------------|-------------------|

D :-------------------|------------------|-------------------|

 

 

E :-------------------|------------------|-------------------|

B :p3-------7-7-h8-p7-|------5-5-h6-p5---|---3-3-h4-p3-------|

G :---3---3-7---------|7---7-5---------5-|---3---------3---3-|

D :-----3---7---------|--7---5-----------|5-\3-----------3---|

A :---------5---------|------3-----------|---1---------------|

D :-------------------|------------------|-------------------|

 

 

=============================================================================

 

E :---------------|------------------/-{17}-|

B :---------------|-------------------------|

G :--------7-7^-7-|7^-7-{7}-------{7}-------|

D :---------------|-------------------------|

A :---------------|-------------------------|

D :---------------|-------------------------|

 

 

E :---------------|-------------------------|

B :7-7-7-7--------|-------------------------|

G :7-7-7-7--------|-------------------------|

D :7-7-7-7--------|-------------------------|

A :5-5-5-5-3-2----|0--2-/3------------------|

D :---------------|---------5-4----3--------|

 

 

=============================================================================

 

E :{17}\-{15}-15-(15)------------|-----------------------|

B :-------------------8-h10-p8-\6|-h8-p6-\5-h6-5-\3-h5-p3|

G :------------------------------|-----------------------|

D :------------------------------|-----------------------|

A :------------------------------|-----------------------|

D :------------------------------|-----------------------|

 

 

E :--3---------3---3-------------|----------------------3|

B :--3---------3---3-------------|----------------------3|

G :--4---------4---4-------------|----------------------4|

D :--3---------3---3-------------|----------------------3|

A :--3---------3---3--3---2-----0|--2-/3----------------3|

D :--3---------3---3-------------|--------5--4----3-----3|

 

 

=============================================================================

 

E :------12-h15-12-h15-p12-12---12--|(12)\-----------------------|

B :-5-p3----------------------------|--------------13-13-13------|

G :---------------------------------|-------12-h14----------14-12|

D :---------------------------------|----------------------------|

A :---------------------------------|----------------------------|

D :---------------------------------|----------------------------|

 

 

E :----3--3-------------------------|------------------------3---|

B :----3--3-------------------------|------------------------3---|

G :----4--4-------------------------|------------------------4---|

D :----3--3-------------------------|------------------------3---|

A :----3--3---3--2------------0----2|----/3------------------3---|

D :----3--3-------------------------|--------5---4-----3-----3---|

 

 

=============================================================================

 

E :--------------------|------------------5-7^|---5-h8-8^---5-h8-p5|

B :--------------------|----------------8-----|--------------------|

G :----b12-------------|-14-14~---14\---------|--------------------|

D :-14-----------------|----------------------|--------------------|

A :--------------------|----------------------|--------------------|

D :--------------------|----------------------|--------------------|

 

 

E :--3---3-------------|----------------3---3-|-3------------------|

B :--3---3-------------|----------------3---3-|-3------------------|

G :--4---4-------------|----------------4---4-|-4------------------|

D :--3---3-------------|----------------3---3-|-3------------------|

A :--3---3-3-2---0-2-/3|----------------3---3-|-3-3--2----0-2-/3---|

D :--3---3-------------|--5--4-----3----3---3-|-3-----------------5|

 

 

=============================================================================

 

E :---5---5-h8-p5-----|---------------------|----------8----10-10-/12|

B :-8---8---------8---|---8-----------------|----8-h10---10----------|

G :-----------------7^|-----5-h7-p5--7-p5-7^|-\7---------------------|

D :-------------------|---------------------|------------------------|

A :-------------------|---------------------|------------------------|

D :-------------------|---------------------|------------------------|

 

 

E :----------3----3-3-|---------------------|----------3-----3--3----|

B :----------3----3-3-|---------------------|----------3-----3--3----|

G :----------4----4-4-|---------------------|----------4-----4--4----|

D :----------3----3-3-|---------------------|----------3-----3--3----|

A :----------3----3-3-|-3-2----0--2-/3------|----------3-----3--3---3|

D :-4---3----3----3-3-|-----------------5-4-|----3-----3-----3--3----|

 

 

=============================================================================

 

E :-12-10-12^-12-p10-h12-----10-10|12-12^---10-10-12-13-12-10|

B :-------------------------------|--------------------------|

G :-------------------------------|--------------------------|

D :-------------------------------|--------------------------|

A :-------------------------------|--------------------------|

D :-------------------------------|--------------------------|

 

 

E :-------------------------------|----------3-----3--3------|

B :-------------------------------|----------3-----3--3------|

G :-------------------------------|----------4-----4--4------|

D :-------------------------------|----------3-----3--3------|

A :--2-----0---2-/-3--------------|----------3-----3--3--3--2|

D :----------------------5-4------|----3-----3-----3--3------|

 

 

=============================================================================

 

E :-10-10-12--14-13-10-10-10|-12-15-13-12---10-13-12|

B :-------------------------|-----------------------|

G :-------------------------|-----------------------|

D :-------------------------|-----------------------|

A :-------------------------|-----------------------|

D :-------------------------|-----------------------|

 

 

E :-------------------------|-----3-----3-3---------|

B :-------------------------|-----3-----3-3---------|

G :-------------------------|-----4-----4-4---------|

D :-------------------------|-----3-----3-3---------|

A :-----0--2-/-3------------|-----3-----3-3--3--2---|

D :---------------5--4-----3|-----3-----3-3---------|

 

 

=============================================================================

 

E :-8-h10-p8-7-h8-p7-(7)---|--------------------|-------12-------------|

B :----------------------10|-8-h10-p8-\8--------|----12------12----12--|

G :------------------------|--------------------|-12------------12-----|

D :------------------------|--------------------|----------------------|

A :------------------------|--------------------|----------------------|

D :------------------------|--------------------|----------------------|

Le sl ie

 

E :------------------------|-3------3--3--------|----------------------|

B :------------------------|-3------3--3--------|----------------------|

G :------------------------|-4------4--4--------|----------------------|

D :------------------------|-3------3--3--------|----------------------|

A :-0---2-/3---------------|-3------3--3--------|----------------------|

D :----------5--4-----3----|-3------3--3--------|----------------------|

 

 

=============================================================================

 

E :-------10---------13--|----------------------12|-------(12)----------|

B :----11---------13-----|-13----13----------12---|---------------------|

G :-12---------10--------|----10------10-/12------|---------------------|

D :----------------------|------------------------|---------------------|

A :----------------------|------------------------|---------------------|

D :----------------------|------------------------|--------------13\----|

Les

 

E :----------------------|------------------------|---------------------|

B :----------------------|------------------------|---------------------|

G :----------------------|------------------------|---------------------|

D :----------------------|------------------------|---------------------|

A :----------------------|------------------------|---------------------|

D :----------------------|------------------------|---------------------|

 

 

=============================================================================

 

E :---------------------|----------------------|---------------------|

B :5^------r-----------^|---r--5^--r-------^---|---------r--5^-------|

G :---------------------|----------------------|---------------------|

D :---------------------|----------------------|---------------------|

A :---------------------|----------------------|---------------------|

D :---------------------|----------------------|---------------------|

Off

 

E :---------------------|----------------------|---------------------|

B :5--5-h6-p5------3-3--|h4-p3---------7-7--h8-|p7--------5-5--h6-p5-|

G :5----------5----3----|------3-----3-7-------|---7---7--5----------|

D :5------------5-\3----|---------3----7-------|-----7----5----------|

A :3---------------1----|--------------5-------|----------3----------|

D :---------------------|----------------------|---------------------|

 

 

=============================================================================

 

E :---------------------|-------------------|

B :---------------6-8~--|-6-\3-3---3-/10-10-|

G :---------------------|-------------------|

D :---------------------|-------------------|

A :---------------------|-------------------|

D :---------------------|-------------------|

 

 

E :---------------------|-------------------|

B :-----3-3-h4-p3-------|----7-7-7-7---5--5-|

G :5----3-----------3---|-3--7-7-7-7---5----|

D :--5-\3--------------3|----7-7-7-7---5----|

A :-----1---------------|----5-5-5-5---3----|

D :---------------------|-------------------|

 

 

=============================================================================

 

E :----------------------------|-----------------------------|

B :----10-13^----13^----13^----|13^---13^---(13)-----13^-13^-|

G :----------------------------|-----------------------------|

D :----------------------------|-----------------------------|

A :----------------------------|-----------------------------|

D :----------------------------|-----------------------------|

 

 

E :----------------------------|-----------------------------|

B :h6-p-5---------3--3-h-4--p3-|----------7---7--h8-p-7------|

G :--------5------3------------|-3-----3--7---------------7--|

D :-----------5-\-3------------|----3-----7------------------|

A :---------------1------------|----------5------------------|

D :----------------------------|-----------------------------|

 

 

=============================================================================

 

E :--------------------------|-----------------------|----------------|

B :13^---13^----13^----13^---|-13^----13^------------|----------------|

G :--------------------------|-----------------------|----------------|

D :--------------------------|-----------------------|----------------|

A :--------------------------|-----------------------|----------------|

D :--------------------------|-----------------------|----------------|

 

 

E :--------------------------|-----------------------|----------------|

B :-------5--5-h-6--p5-------|--3--3-h-4--p3-------7-|7-7-7-----------|

G :----7--5-------------5----|--3------------3---3-7-|7-7-7-----------|

D :-7-----5----------------5-|\-3--------------3---7-|7-7-7-----------|

A :-------3------------------|--1------------------5-|5-5-5-----------|

D :--------------------------|-----------------------|----------------|

I'm starting a E-mailing list for tablature if you would like to join

E-Mail me a Wildt84271

 

 

Return to my to my Soundgarden tabs page

The Tablature is Copyright its respective owners.

Sign Up For My Newsletter
Subscribe | Unsubscribe

Site Map | Disclaimer | Privacy Policy | Media Kit | Submissions/Corrections

Website © 2000-2014 mattsmusicpage.com. All rights reserved.

Legal & DMCA: Matt's Music Page has been providing lyrics and tabs in a legal way, paying royalties each year to a few organizations. Then, all lyrics and tabs were removed from the site. Now, there's a new owner to the site, which purchased it August 26, 2014, and he is in negotiation to obtain licensing from BMI at the moment. If you have a specific DMCA request -- please do not hesitate to contact me via the contact button on top. I will do my very best to keep this site fully legal.

Get our toolbar!