Your One-Stop Source For
Music Lyrics
Bass and Guitar Tabs
and More...
Music Lyrics Bass and Guitar Tabs

 

The Tabs Are Below

Learn To Read Tab
Chords Handbook
Corrections & Additions
Get Official Tab
Soundgarden tabs @ 911Tabs

 

I have recently discovered that I made a terrible mistake when

transcribing "Fell on Black Days." My taped copy was flawed and I

interpreted all the pitches to be a half step down. I have now

corrected the mistake. I am very sorry to inconvience you, but I feel

it would be a great injustice to post a misleading transcription. Here

is the corrected transcription. I hope to see the BTA exand soon!

Kyle Ford

Clinton, MS

Fell on Black Days

Artist: Soundgarden

Transcribed by Kyle Ford

12/20/98; 1/30/99

 

 

Hi-Hat w Guitar Intro W 4x w

G----------------r--||-------r--r--r--r-----r------||------r--||--------

D---4:-----------e--||*--6:--e--e--e--e-----e-----*||--4:--e--||--6:----

A---4:-----------s--||*--4:--s--s--s--s-----s-----*||--4:--s--||--4:----

E----------------t--||-------t--t--t--t-----t------||------t--||--------

 

 

Q e e q e e q Q e e e e e e e e Q e e

G-----------------------|--------------r-----------------|--------------

D-----------------------|--------------e-----------------|--------------

A---7-------------------|--7-----------s-----------------|--7-----------

E------7--7--7\5--5--5--|-----7--7--7--t--8--8--8--8--7--|-----7--7-----

 

 

q e e q Q e e e e e e e e e Q e e q e e

G--------------|--------------r-----------------|-----------------------

D--------------|--------------e-----------------|-----------------------

A--------------|--7-----------s-----------------|--7--------------------

E---7\5--5--5--|-----7--7--7--t--8--8--8--8--7--|-----7--7--7\5--5------

 

 

q Q e e e e e e e e e Q e e q e e q Q

G------|--------------r-----------------|----------------------|--------

D------|--------------e-----------------|----------------------|--------

A------|--7-----------s-----------------|--7-------------------|--7-----

E---5--|-----7--7--7--t--8--8--8--8--7--|-----7--7--7\5--5--5--|--------

 

 

e e e e e e e e e h q q q e e q e e

G------------r-----------------|---------------------------------|------

D------------e-----------------|--4:-----------------------------|------

A------------s-----------------|--4:--7-----7-----------7--------|------

E---7--7--7--t--8--8--8--8--7--|---------8-----7--5--5-----8--8--|------

 

 

fell on... e e e e e e e e e e e e

G---------------------|----------------------------r-----------|---------

D---------------------|--6:------------------------e--7--------|---------

A---------------------|--4:-----7--------10--------s-----7--5--|---------

E---------------------|------7-----8--7-----10--8--t-----------|--7------

 

 

e e e e e e e e e e e e e e e e e e e e

G-------------------------------|------------------------r-----------|----

D---------------------7---------|------------------------e--7--------|----

A---7--------10-----------7--5--|-----7--------10--------s-----7--5--|----

E------8--7-----10--8-----------|--7-----8--7-----10--8--t-----------|----

 

 

e e e e e e e s s h h Q e e q e e q

G----------------------------------|------r--|----------------------|----

D----------------------------------|--2:--e--|----------------------|----

A------7--------10-----------------|--4:--s--|--7-------------------|----

E---7-----7--6-----10--8--8--8--8--|------t--|-----7--7--7\5--5--5--|----

 

 

Q e e e e e e e e e Q e e q e e q Q e e

G---------------r-----------------|----------------------|--------------

D---------------e-----------------|----------------------|--------------

A---7-----------s-----------------|--7-------------------|--7-----------

E------7--7--7--t--8--8--8--8--7--|-----7--7--7\5--5--5--|-----7--7-----

 

 

e e e e e e e Q e e q e e q Q e e e e e

G------r-----------------|----------------------|--------------r--------

D------e-----------------|----------------------|--------------e--------

A------s-----------------|--7-------------------|--7-----------s--------

E---7--t--8--8--8--8--7--|-----7--7--7\5--5--5--|-----7--7--7--t--8-----

 

 

e e e e Q e e q e e q Q e e e e e e e e

G---------------|----------------------|--------------r-----------------

D---------------|----------------------|--------------e-----------------

A---------------|--7-------------------|--7-----------s-----------------

E---8--8--8--7--|-----7--7--7\5--5--5--|-----7--7--7--t--8--8--8--8-----

 

 

e h q q q e e q e e fell on...

G------|---------------|--------------------|-----------------|---------

D------|--4:-----------|--------------------|-----------------|--6:-----

A------|--4:--7-----7--|-----------7--------|-----------------|--4:-----

E---7--|---------8-----|--7--5--5-----8--8--|-----------------|---------

 

 

Q e e e e q e e e Q e e e e q e e e Q e

G---------------r--------------|--------------r--------------|----------

D---------------e--------------|--------------e--------------|----------

A---7-----------s--------------|--7-----------s--------------|--7-------

E------7--7--7--t--8--8--8--8--|-----7--7--7--t--8--8--8--8--|-----7----

 

 

e e e q e e e Q e e e e q e e e Q e e e

G---------r--------------|--------------r--------------|----------------

D---------e--------------|--------------e--------------|----------------

A---------s--------------|--7-----------s-----5--5--5--|--7-------------

E---7--7--t--8--8--8--8--|-----7--7--7--t--8-----------|-----7--7--7----

 

 

 

e q e e e Q e e e e q e e e Q e e e e q

G---r--------------|--------------r--------------|--------------r-------

D---e--------------|--------------e--------------|--------------e-------

A---s--------------|--7-----------s-----5--5--5--|--7-----------s-------

E---t--8--8--8--8--|-----7--7--7--t--8-----------|-----7--7--7--t--8----

 

 

e e e Q e e e e q e e e h E s E s

G------------|--------------r--------------|------------r-----r--|------

D------------|--------------e--------------|--4:--------e--6--e--|------

A------------|--7-----------s--------------|--4:-----7--s-----s--|------

E---8--8--8--|-----7--7--7--t--8--8--8--8--|------7-----t-----t--|------

 

 

e e e e e e e e e e e e e e e e h E s E

G---r-----------r-----------|--r-----------r-----------|--------r-------

D---e-----------e-----------|--e-----------e-----------|--------e--6----

A---s--5--5--5--s--5--5--5--|--s--5--5--5--s--5--5--5--|-----7--s-------

E---t-----------t-----------|--t-----------t-----------|--7-----t-------

 

 

s e e e e e e e e e e e e e e e e h E

G---r--|--r-----------r-----------|--r-----------r-----------|----------

D---e--|--e-----------e-----------|--e-----------e-----------|----------

A---s--|--s--5--5--5--s--5--5--5--|--s--5--5--5--s--5--5--5--|-----7----

E---t--|--t-----------t-----------|--t-----------t-----------|--7-------

 

 

s E s e e e e e e e e e e e e e e e e

G---r-----r--|--r-----------r-----------|--r-----------r-----------|----

D---e--6--e--|--e-----------e-----------|--e-----------e-----------|----

A---s-----s--|--s--5--5--5--s--5--5--5--|--s--5--5--5--s--5--5--5--|----

E---t-----t--|--t-----------t-----------|--t-----------t-----------|----

 

 

e e e e e e e e e e e e e e q Q e e

G---r-----------r-----------|--r-----------r--------|-------------------

D---e-----------e-----------|--e-----------e--------|--6:---------------

A---s--5--5--5--s--5--5--5--|--s--5--5--5--s--5--5--|--4:--7------------

E---t-----------t-----------|--t-----------t--------|---------7--7------

 

 

q e e q Q e e e e e e e e e Q e e e e e

G--------------|--------------r-----------------|--------------r--------

D--------------|--------------e-----------------|--------------e--------

A--------------|--7-----------s-----------------|--7-----------s--------

E---7\5--5--5--|-----7--7--7--t--8--8--8--8--7--|-----7--7--7--t--8-----

 

 

e e e e Q e e e e e e e e e Q e e q e e

G---------------|--------------r-----------------|----------------------

D---------------|--------------e-----------------|----------------------

A---------------|--7-----------s-----------------|--7-------------------

E---8--8--8--7--|-----7--7--7--t--8--8--8--8--7--|-----7--7--7\5--5-----

 

 

q Q e e e e e e e e e Q e e q e e q Q

G------|--------------r-----------------|----------------------|--------

D------|--------------e-----------------|----------------------|--------

A------|--7-----------s-----------------|--7-------------------|--7-----

E---5--|-----7--7--7--t--8--8--8--8--7--|-----7--7--7\5--5--5--|--------

 

 

e e e e e e e e e h q q q e e q e e

G------------r-----------------|---------------|------------------------

D------------e-----------------|--4:-----------|------------------------

A------------s-----------------|--4:--7-----7--|-----------7------------

E---7--7--7--t--8--8--8--8--7--|---------8-----|--7--5--5-----8--8------

 

 

drum fill h q q q e e q e e

G---|------------------------|---------------|--------------------|-----

D---|--2:--------------------|--4:-----------|--------------------|-----

A---|--4:--------------------|--4:--7-----7--|-----------7--------|-----

E---|------------------------|---------8-----|--7--5--5-----8--8--|-----

 

 

s s q e h q q q e e q e e s s q

G-----------------|---------------|--------------------|----------------

D---2:--9p7--2/7--|--4:-----------|--------------------|--2:--9p7--2----

A---4:------------|--4:--7-----7--|-----------7--------|--4:------------

E-----------------|---------8-----|--7--5--5-----8--8--|----------------

 

 

e h q q q e e q e e

G-------|---------------|--------------------||-------------------------

D---/7--|--4:-----------|--------------------||*------------------------

A-------|--4:--7-----7--|-----------7--------||*------------------------

E-------|---------8-----|--7--5--5-----8--8--||-------------------------

 

 

She don't...fell o4x.. e e e e e e e e e e e e

G---------------------||----------------------------r-----------|--------

D--------------------*||--6:------------------------e--7--------|--------

A---~~~~~~~~~~~~~~~--*||--4:-----7--------10--------s-----7--5--|--------

E---------------------||------7-----8--7-----10--8--t-----------|--7-----

 

 

e e e e e e e e e e e e e e e e e e e e e

G----------------------r-----------|------------------------r-------------

D----------------------e--7--------|------------------------e--7----------

A---7--------10--------s-----7--5--|-----7--------10--------s-----7--5----

E------8--7-----10--8--t-----------|--7-----8--7-----10--8--t-------------

 

 

e e e e e e h e^ e^ e^ Q e e e e q e e e

G---|--------------------------------|--------------r--------------|----

D---|--------------------------------|--------------e--------------|----

A---|-----7--------1--------5--5--5--|--7-----------s--------------|----

E---|--7-----8--7-----1--8-----------|-----7--7--7--t--8--8--8--8--|----

 

 

Q e e e e q e e e Q e e e e q e e e Q E

G---------------r--------------|--------------r--------------|----------

D---------------e--------------|--------------e--------------|----------

A---7-----------s-----5--5--5--|--7-----------s--------------|--7-------

E------7--7--7--t--8-----------|-----7--7--7--t--8--8--8--8--|-----7----

 

 

E E E q e e e Q E E E E q e e e Q e e e

G---------r--------------|--------------r--------------|----------------

D---------e--------------|--------------e--------------|----------------

A---------s-----5--5--5--|--7-----------s--------------|--7-------------

E---7--7--t--8-----------|-----7--7--7--t--8--8--8--8--|-----7--7--7----

 

 

e q e e e Q e e e e q e e e Q e e e e q

G---r--------------|--------------r--------------|--------------r-------

D---e--------------|--------------e--------------|--------------e-------

A---s-----5--5--5--|--7-----------s--------------|--7-----------s-------

E---t--8-----------|-----7--7--7--t--8--8--8--8--|-----7--7--7--t--8----

 

 

e e e h q q q e e q e e

G------------|---------------|--------------------|---------------------

D------------|--4:-----------|--------------------|---------------------

A------------|--4:--7-----7--|-----------7--------|---------------------

E---8--8--8--|---------8-----|--7--5--5-----8--8--|---------------------

 

 

She don't mind the change.

G-----------------------||----------------------------------------------

D-----------------------||----------------------------------------------

A---~~~~~~~~~~~~~~~~~~--||----------------------------------------------

E-----------------------||----------------------------------------------

 

 

 

 

========================================================================

== TABLATURE EXPLANATION ==

========================================================================

 

---------- ---------- ----t---

----5h8--- Hammeron ----(8)--- Ghost ----6--- Tap

---------- ---------- Note --------

----5p8--- Pulloff ---------- --------

 

---------- ---------- -----p--

----5/8--- Slide Up -----x---- Dead -----7-- Pop

---------- ---------- Note --s-----

----5\8--- Slide Down ---------- --5----- Slap

 

---------- ||------|| Repeat --------

----5~~~-- Vibrato ||*----*|| ---5^--- Bend

---------- ||*----*|| --------

---------- ||------|| --------

 

---------- ---------- --------

-4:------- Time ---------- --------

-4:------- Signature ---------- --------

---------- ---------- --------

 

Rhythm:

w = whole note W = dotted whole

h = half note H = dotted half

q = quarter note Q = dotted quarter

e = eighth note E = dotted eighth

s = sixteenth note S = dotted sixteenth

t = 32nd note T = dotted 32nd

x = 64th note X = dotted 64th

^ = triplet

 

Return to my to my Soundgarden bass tabs page

The Tablature is Copyright its respective owners.

Sign Up For My Newsletter
Subscribe | Unsubscribe

Site Map | Disclaimer | Privacy Policy | Media Kit | Submissions/Corrections

Website © 2000-2014 mattsmusicpage.com. All rights reserved.

Get our toolbar!