Your One-Stop Source For
Music Lyrics
Bass and Guitar Tabs
and More...
Music Lyrics Bass and Guitar Tabs

 

The Tabs Are Below

Learn To Read Tab
Chords Handbook
Corrections & Additions
Get Official Tab
Soundgarden tabs @ 911Tabs

 

 Black Hole Sun

 

Recorded by Soundgarden

 

transcribed by jsmith@feldspar.com

 

 

 

Drop tuning to d

 

 

 

 

 

Intro Versus

 

---------------------|-----------------||------------------------|-

 

---------------------|-----------------||------------------------|-

 

---------------------|-----------------||------------------------|-

 

---------------------|-----------------||---5--5----8---0--------|-

 

 

 

 

 

 

 

------------------------------|-------------------------|-

 

------------------------------|-------------------------|-

 

------------------------------|-------------------------|-

 

3-----2-----------------1--x--|--5--5--3--3/6-----------|-

 

 

 

 

 

 

 

------------------------------------------------------|-----------|-

 

------------------------------------------------------|-----------|-

 

------------------------------------------------------|-----------|-

 

5--5/8-----------8\-------------------\3--3--2--2--2--|--1--1--x--|-

 

 

 

 

 

Chorus (Play only once 1st time)

 

-----------------|--------------||-----------------------|-

 

-----------------|--------------||*----------------------|-

 

-----------------|--------------||*----------------------|-

 

5--5--3--3/6--6--|--(6)---------||-----------1--1--x--x--|-

 

 

 

 

 

 

 

---------------------|--------|----------|---------||-

 

---------------------|--------|----------|--------*||-

 

------------1--1-----|--------|--3--3--3/|--5-----*||-

 

5--5--3--3--------x--|--1--x--|----------|---------||-

 

 

 

 

 

 

 

------------------------------------|-----------------|-

 

------------------------------------|-----------------|-

 

---3--3--3--3--3-----1--1--1--1-----|-----------------|-

 

------------------x--------------x--|--1-----1--x--x--|-

 

 

 

 

 

 

 

---------------------|--------|--

 

---------------------|--------|--

 

------------1--1-----|--------|--

 

5--5--3--3--------x--|--1--x--|--

 

 

 

 

 

 

 

--------------------------------------------------------------------------

 

--------------------------------------------------------------------------

 

3--3--3--3--3--x--1--1--1--1--------------------------1--1--1--1/5-----5--

 

------------------------------x--1--x--x--5--5--3--3----------------x-----

 

 

 

 

 

 

 

------------|-------------------------------------|-

 

------------|-------------------------------------|-

 

5--5--5--5--|--3--3--3--3--x--1--1--1--1/5--------|-

 

------------|-------------------------------x--x--|-

 

 

 

 

 

 

 

--------------------------------------------------||-

 

--------------------------------------------------||-

 

3--3--3--3--x--1--1--1--1/5--5--------5--5--5--5--||-

 

--------------------------------x--x--------------||-

 

 

 

 

 

Guitar solo line

 

------------------------------------------------------------

 

---------------------------3-----3--------------------------

 

3--2--x--2--3-----------------------------------------------

 

---------------5--4--3--3-----3-----3--x--------------------

 

 

 

 

 

 

 

---------||----------------|--------|-------||--

 

---------||----------------|--------|-------||--

 

---------||----------------|--------|-------||--

 

3--5--5--||--5--(5)--x--8--|--3--2--|--(2)--||--

 

 

 

 

 

 

 

---------------------------------------------------|-

 

---------------------------------------------------|-

 

3--3--3--3--x--1--1--1--1--5--------5--------5-----|-

 

------------------------------x--x-----x--x-----x--|-

 

 

 

 

 

 

 

---------------------------------------------------|-

 

---------------------------------------------------|-

 

3--3--3--3--x--1--1--1--1--5--------5--------5-----|-

 

------------------------------x--x-----x--x-----x--|-

 

 

 

 

 

 

 

------------------------------------------------------|-

 

------------------------------------------------------|-

 

3--3--3--3--x--1--1--1--1--x--5--5--5--5--5--6--5--x--|-

 

------------------------------------------------------|-

 

 

 

 

 

 

 

------------------------------------------------------|-

 

---------------------------------7--------------------|-

 

3--3--3--3--x--1--1--1--1--x--5-----5-----5-----5--x--|-

 

---------------------------------------x-----x--------|-

 

 

 

 

 

 

 

------------------------------------------------------|-

 

---------------------------------7--------------------|-

 

3--3--3--3--x--1--1--1--1--x--5-----5-----5-----5--x--|-

 

---------------------------------------x-----x--------|-

 

 

 

 

 

 

 

---------------------------------------|-----------------------

 

---------------------------------------|-----------------------

 

3--2--x--2--3--------3--3--3--3--3--x--|--3--5--5--------------

 

---------------5--4--------------------|-----------------------

 

Return to my to my Soundgarden bass tabs page

The Tablature is Copyright its respective owners.

Sign Up For My Newsletter
Subscribe | Unsubscribe

Site Map | Disclaimer | Privacy Policy | Media Kit | Submissions/Corrections

Website © 2000-2014 mattsmusicpage.com. All rights reserved.

Legal & DMCA: Matt's Music Page has been providing lyrics and tabs in a legal way, paying royalties each year to a few organizations. Then, all lyrics and tabs were removed from the site. Now, there's a new owner to the site, which purchased it August 26, 2014, and he is in negotiation to obtain licensing from BMI at the moment. If you have a specific DMCA request -- please do not hesitate to contact me via the contact button on top. I will do my very best to keep this site fully legal.

Get our toolbar!