Your One-Stop Source For
Music Lyrics
Bass and Guitar Tabs
and More...
Music Lyrics Bass and Guitar Tabs

 

The Tabs Are Below

Learn To Read Tab
Chords Handbook
Corrections & Additions
Get Official Tab
Soundgarden tabs @ 911Tabs

Applebite

Soundgarden

 

 

Verse and Intro:

(4/4)

E------------|-----------|-----------|-----------||

B-----4------|-----------|-----------|-----------||

G------------|----0------|----2------|-(2)-------||

D--3---------|-2---------|-0---------|-(0)-------||

A------------|-----------|-----------|-----------||

E------------|-----------|-----------|-----------||

 

Chorus: (clean and piano)

(4/4)

e------------|-----------|-----------|

B------------|-----------|-----------|

G-----4------|----0------|-----------|

D------------|-----------|----3------|

A--4---------|-3---------|-1---------|

E------------|-----------|-----------|

 

(5/8)

E---------|---------|---------|---------||

B---------|---------|---------|---------||

G----2----|-(2)-----|-(2)-----|-(2)-----||

D---------|---------|---------|---------||

A--0------|-(0)-----|-(0)-----|-(0)-----||

E---------|---------|---------|---------||

 

Chorus: (Fuzzy Guitar)

(4/4)

e------------|-----------|-----------|

B------------|-----------|-----------|

G--4---------|-----------|-----------|

D------------|-5---------|-3---------|

A--4---------|-3---------|-1---------|

E------------|-----------|-----------|

 

E---------|---------|---------|---------||

B---------|---------|---------|---------||

G--2------|-(2)-----|-(2)-----|-(2)-----||

D---------|---------|---------|---------||

A--0------|-(0)-----|-(0)-----|-(0)-----||

E---------|---------|---------|---------||

 

LYRICS:

(Moaning)

 

No one can save

The pure or the brave

No one can save them at all

Grow and decay

Grow and decay

 

It's only forever

It's only forever

 

Loosely or tightly

Everything fits

Even the wrists on your arm

Grow and decay

Grow and decay

 

It's only forever

It's only forever

It's only forever

It's only forever

 

(More Moaning)

 

Return to my to my Soundgarden tabs page

The Tablature is Copyright its respective owners.

Sign Up For My Newsletter
Subscribe | Unsubscribe

Site Map | Disclaimer | Privacy Policy | Media Kit | Submissions/Corrections

Website © 2000-2014 mattsmusicpage.com. All rights reserved.

Get our toolbar!