Your One-Stop Source For
Music Lyrics
Bass and Guitar Tabs
and More...
Music Lyrics Bass and Guitar Tabs

 

The Tabs Are Below

Learn To Read Tab
Chords Handbook
Corrections & Additions
Get Official Tab
Smash Mouth tabs @ 911Tabs

Walkin' On The Sun

by Smash Mouth

tabbed by ikswejahan@aol.com

Tuned Down 1/2 Step (only if you wanna play along w/ CD)

 

RIFF A:

Am D Ab7 D

d-----2-----4--4--|-----5-----4--4--| played in intro

a--0--3--0--5--5--|--0--6--0--5--5--| and throughout

E-----------------|-----------------| the song

 

VERSE:

Am D Ab7 D

b--5---7---|--8---7--7--| played an uncountable

g--5---7---|--8---7--7--| amount of times

 

CHORUS:

Am D6 Ab7 D6

e-5-5-5-5--7--7-|-8-8-8-8--7--7-| played a bunch

b-5-5-5-5--7--7-|-8-8-8-8--7--7-| of times

g-5-5-5-5--7--7-|-8-8-8-8--7--7-|

 

POST-CHORUS PART A:

E7#9 (i think)

e-------------|

b-8---8-8-8-8-|

g-7---7-7-7-7-| this is just played one

d-6---6-6-6-6-| time after the chorus

a-7---7-7-7-7-|

E-------------|

 

ORGAN SOLO: (i dont know why anyone would want this

but i went ahead and tabbed it out

for guitar)

Am D Ab7 D

e----17----17----17----------------|

b----------------------16-15-13----|

g-14----14----14----14----------14-|

 

ORGAN SOLO (continued):

Am D Ab7 D Am D Ab7

e-------------15-17-15-17-|-20-20-20-17--15-17-|

b-------------------------|--------------------|

g-14-14-14-14-------------|--------------------|

 

ORGAN SOLO (continued again):

D Am D E7#9

e-------------|----------|

b-15-13----13-|------13--|

g-------14----|--12------|

 

That's all there is to it. Just listen to the CD to find out the entire correct order. Hope ya like it. Send me requests.

 

Return to my to my Smash Mouth tabs page

The Tablature is Copyright its respective owners.

Sign Up For My Newsletter
Subscribe | Unsubscribe

Site Map | Disclaimer | Privacy Policy | Media Kit | Submissions/Corrections

Website © 2000-2014 mattsmusicpage.com. All rights reserved.

Legal & DMCA: Matt's Music Page has been providing lyrics and tabs in a legal way, paying royalties each year to a few organizations. Then, all lyrics and tabs were removed from the site. Now, there's a new owner to the site, which purchased it August 26, 2014, and he is in negotiation to obtain licensing from BMI at the moment. If you have a specific DMCA request -- please do not hesitate to contact me via the contact button on top. I will do my very best to keep this site fully legal.

Get our toolbar!