Your One-Stop Source For
Music Lyrics
Bass and Guitar Tabs
and More...
Music Lyrics Bass and Guitar Tabs

 

The Tabs Are Below

Learn To Read Tab
Chords Handbook
Corrections & Additions
Get Official Tab
Smash Mouth tabs @ 911Tabs

Band: Smash Mouth

Album: Astro Lounge

Song: Stoned

 

Intro/Verse:

e|------------------------------------------------------|x8

B|--12-12-12-12--12-12-12-12--12-12-12-12--11-11-11-11--|

G|--11-11-11-11--14-14-14-14--12-12-12-12--11-11-11-11--|

D|------------------------------------------------------|

A|------------------------------------------------------|

E|------------------------------------------------------|

 

Verse:

e|----------------------------------------------------------------x2|------|

B|------------------------------------------------------------------|------|

G|----------111--/4-----------------------111--/4-------------------|------|

D|-------------------222--4/3/4--------------------222--55-555-444--|--8~--|

A|--1-2-1-2-----------------------1-2-1-2---------------------------|--6~--|

E|------------------------------------------------------------------|--6~--|

PM-------------------| |-------------------------------|

 

Chorus:

e|----------------------------------------x3|--------------------|

B|------------------------------------------|--------------------|

G|--------------------8-8-8-8--12-12-12-12--|--------------------|

D|--2-2-2-2--5-5-5-5--x-x-x-x---x--x--x--x--|--2-2-2-2--5-5-5-5--|

A|--2-2-2-2--5-5-5-5--9-9-9-9--13-13-13-13--|--2-2-2-2--5-5-5-5--|

E|--0-0-0-0--3-3-3-3--7-7-7-7--11-11-11-11--|--0-0-0-0--3-3-3-3--|

 

 

Lyrics:

Leave me alone I\'m over it

And everybody\'s movin\' on

I can\'t see my tomorrow and yesterday has come and gone

So leave me alone

My mind is blown but it\'s my own

So deal with it

I\'m feeling fine most the time

I may be on the outside but no ones getting in

So leave me alone

We\'re O.K. reelin\' in the days

We\'re alright we\'re just getting high

Let us be it\'ll be all right

I got no strife I\'m loving life

Could you say the same

You don\'t have to move to groove

So come on up and see me but leave that judge behind

\'Cause I\'m loving life

Chorus

Chorus

I\'m gettin\' stoned and what\'s wrong with that

The president seems to be just fine

Come on up and see me

Come on up just know that I\'m gettin\' stoned

I\'m gettin\' stoned I\'m gettin\' stoned I\'m gettin\' stoned

Chorus

 

 

 

 

 

Return to my to my Smash Mouth tabs page

The Tablature is Copyright its respective owners.

Sign Up For My Newsletter
Subscribe | Unsubscribe

Site Map | Disclaimer | Privacy Policy | Media Kit | Submissions/Corrections

Website © 2000-2014 mattsmusicpage.com. All rights reserved.

Legal & DMCA: Matt's Music Page has been providing lyrics and tabs in a legal way, paying royalties each year to a few organizations. Then, all lyrics and tabs were removed from the site. Now, there's a new owner to the site, which purchased it August 26, 2014, and he is in negotiation to obtain licensing from BMI at the moment. If you have a specific DMCA request -- please do not hesitate to contact me via the contact button on top. I will do my very best to keep this site fully legal.

Get our toolbar!

 

Hard Rock Pin Las Vegas 4th of july red white and blue guitar
$5.0
Hard Rock Pin Las Vegas 4th of july red white and blue guitar picture


Hard Rock Pin Hollywood Fl Bell Girl with dice luggage and guitar
$5.0
Hard Rock Pin Hollywood Fl Bell Girl with dice luggage and guitar picture


Hard Rock Pin Las Vegas King of Clubs Guitar rare only 3 lines of info on back
$5.0
Hard Rock Pin Las Vegas King of Clubs Guitar rare only 3 lines of info on back picture


Hard Rock Pin Edmonton guitar pin
$5.0
Hard Rock Pin Edmonton guitar pin picture


Lladro Guitar Boy #4614 - Beautiful Piece of Lladro
$109.0
Lladro Guitar Boy #4614 - Beautiful Piece of Lladro picture