Your One-Stop Source For
Music Lyrics
Bass and Guitar Tabs
and More...
>Music Lyrics Bass and Guitar Tabs

 

The Tabs Are Below

Learn To Read Tab
Chords Handbook
Corrections & Additions
Get Official Tab
Smash Mouth tabs @ 911Tabs

hum de dum

got a funky beat to it

d'I LIKE IT

just remember to keep all notes

stacato and short

X=palm mute

 

e|---------------------------------------------------|

B|---------------------------------------------------|

G|---------------------------------------------------|

D|---------------------------------------------------|

A|----10----10-------10-------10---------------------|

E|-0-------0------0-------00-------------------------|

X X X XX

 

e|---------------------------------------------------|

B|---------------------------------------------------|

G|---------------------------------------------------|

D|---------------------------------------------------|

A|----12----12-------11-------11---------------------|

E|-0-------0------0-------00-------------------------|

x x x xx

 

thats it... well theres an accoustic part in there but

its nothing you cant improvise yourselfs

 

 

Return to my to my Smash Mouth tabs page

The Tablature is Copyright its respective owners.

Sign Up For My Newsletter
Subscribe | Unsubscribe

Site Map | Disclaimer | Privacy Policy | Media Kit | Submissions/Corrections

Website © 2000-2014 mattsmusicpage.com. All rights reserved.

Legal & DMCA: Matt's Music Page has been providing lyrics and tabs in a legal way, paying royalties each year to a few organizations. Then, all lyrics and tabs were removed from the site. Now, there's a new owner to the site, which purchased it August 26, 2014, and he is in negotiation to obtain licensing from BMI at the moment. If you have a specific DMCA request -- please do not hesitate to contact me via the contact button on top. I will do my very best to keep this site fully legal.

Get our toolbar!

 

RARE LAS VEGAS KURT COBAIN NIRVANA DEAD ROCKER GUITAR SERIES Hard Rock Cafe PIN
$69.99
RARE LAS VEGAS KURT COBAIN NIRVANA DEAD ROCKER GUITAR SERIES Hard Rock Cafe PIN picture


TAIPEI TAIWAN ORIENTAL VINTAGE GOLDEN DRAGON ACOUSTIC GUITAR Hard Rock Cafe PIN
$24.99
TAIPEI TAIWAN ORIENTAL VINTAGE GOLDEN DRAGON ACOUSTIC GUITAR Hard Rock Cafe PIN picture


FUKUOKA JAPAN HELLO FIRE CRACKER KITTY 4TH JULY GUITAR Hard Rock Cafe PIN LE100
$39.99
FUKUOKA JAPAN HELLO FIRE CRACKER KITTY 4TH JULY GUITAR Hard Rock Cafe PIN LE100 picture


CHINESE ASTROLOGY YEAR DRAGON ZODIAC SG GIBSON GUITAR SERIES Hard Rock Cafe PIN
$19.99
CHINESE ASTROLOGY YEAR DRAGON ZODIAC SG GIBSON GUITAR SERIES Hard Rock Cafe PIN picture


HONG KONG CHINA UNCLE DAN SCHMIDER PIN COLLECTOR GIBSON GUITAR Hard Rock Cafe
$7.99
HONG KONG CHINA UNCLE DAN SCHMIDER PIN COLLECTOR GIBSON GUITAR Hard Rock Cafe picture