Your One-Stop Source For
Music Lyrics
Bass and Guitar Tabs
and More...
>Music Lyrics Bass and Guitar Tabs

 

The Tabs Are Below

Learn To Read Tab
Chords Handbook
Corrections & Additions
Get Official Tab
Smash Mouth tabs @ 911Tabs

love this guitar intro

 

Intro:

 

E|------------------------------------------|

B|------------------------------------------|

G|---5-5-5--5-5-5-5-5-----------------------|

D|---5-5-5--5-5-5-5-5--6--6-6--8--8---------|

A|---3-3-3--3-3-3-3-3--6--6-6--8--8---------|

E|---------------------4--4-4--6--6---------|

 

 

E|------------------------------------------|

B|------------------------------------------|

G|----------------------------6--4----------|

D|---9-9-9--9-9-9-9-9--4-4-4--6--4----------|

A|---9-9-9--9-9-9-9-9--4-4-4--4--2----------|

E|---7-7-7--7-7-7-7-7--2-2-2----------------|

 

Fill:

 

E|------------------------------------------------|

B|-----(Fast)-------------------------------------|

G|------3-3--4------------------------------------|

D|---4--3-3--4---5---5---5---5---4---4---4---4----|

A|---4--1-1--2-----5---5---5---5---4---4---4---4--|

E|---2--------------------------------------------|

 

E|------------------------------------------------|

B|------------------------------------------------|

G|----------------8----8---8----8--8---8--8---8---|

D|---5---5---5----8---H10--10---8--8---6--6---5---|

A|-----5---5--------------------------------------|

E|------------------------------------------------|

 

E|-----------------------------------------------------|

B|-----------------------------------------------------|

G|-----------------------------------------------------|

D|---5---5---5---5------4---4---4---4--(reapeat intro)-|

A|-----5---5---5---5------4---4---4---4----------------|

E|-----------------------------------------------------|

 

E|---------11----------11----------11----------11---|

B|

G|

D|

A|---11-11----11-11-11----11-11-11----11-11-11------|

E|

 

E|

B|

G|

D|

A|

E|---7-7-7-7-7-7-7-7-6-6-6-6-6-6-6-6-5-5-5-5-5-5-5-5-|

 

E|---4-4-4-4-4-4-4-4------|

 

thats it, it takes a while to get used to the strumming

but if you havnt heard the song, dont try and play it

 

 

Return to my to my Smash Mouth tabs page

The Tablature is Copyright its respective owners.

Sign Up For My Newsletter
Subscribe | Unsubscribe

Site Map | Disclaimer | Privacy Policy | Media Kit | Submissions/Corrections

Website © 2000-2014 mattsmusicpage.com. All rights reserved.

Legal & DMCA: Matt's Music Page has been providing lyrics and tabs in a legal way, paying royalties each year to a few organizations. Then, all lyrics and tabs were removed from the site. Now, there's a new owner to the site, which purchased it August 26, 2014, and he is in negotiation to obtain licensing from BMI at the moment. If you have a specific DMCA request -- please do not hesitate to contact me via the contact button on top. I will do my very best to keep this site fully legal.

Get our toolbar!

 


Retro Banjo Frog on Skull Cigarette Case with lighter ID Holder Wallet
$
Retro Banjo Frog on Skull Cigarette Case with lighter ID Holder Wallet  picture


Custom-Made Girandole Banjo Clock “1977”
$
Custom-Made Girandole Banjo Clock “1977” picture


Howard Miller 612-718 Catalina Wall Clock Weather Station Excellent
$
Howard Miller 612-718 Catalina Wall Clock Weather Station Excellent picture


BanjoPipe™ banjo pipe multi bowl tobacco metal brass 6 shooter mendo proto USA
$
BanjoPipe™ banjo pipe multi bowl tobacco metal brass 6 shooter mendo proto USA picture


Antique 1930's Seth Thomas Banjo Clock
$
Antique 1930's  Seth Thomas Banjo Clock picture


Vintage-Brass-Banjo Clock Eagle Finial-#H302
$
Vintage-Brass-Banjo Clock Eagle Finial-#H302 picture


 E Howard #5 Banjo Clock all original 
$
 E Howard #5 Banjo Clock all original  picture


New Haven Banjo Clock Hands with Brass Mounting
$
New Haven Banjo Clock Hands with Brass Mounting picture


Gorgeous Vintage NEW HAVEN Banjo Clock "Whitney Mahogany W/ Orig Key. WORKS GRT
$
Gorgeous Vintage NEW HAVEN Banjo Clock


8 Day Vintage antique USA,Banjo clock,with one weight Driven,mechanical Movement
$
8 Day Vintage antique USA,Banjo clock,with one weight Driven,mechanical Movement picture