Your One-Stop Source For
Music Lyrics
Bass and Guitar Tabs
and More...
Music Lyrics Bass and Guitar Tabs

 

The Tabs Are Below

Learn To Read Tab
Chords Handbook
Corrections & Additions
Get Official Tab
Smash Mouth tabs @ 911Tabs

Smash Mouth - New Planet

Tabbed By: eggplant18

Email: elpalmer@fastmail.fm

 

Tuning: Standard (E A D G B E)

 

 

 

* - palm mute

b - bend

 

Intro

E |--------|--------|--------|--------|--------|--------|--------|--------|

B |--------|--------|--------|--------|--------|--------|--------|--------|

G |--------|--------|--------|--------|--------|--------|--------|--------|

D |--------|--------|--------|--------|--------|--------|--------|--------|

A |--------|55555555|--------|55555555|--------|33333333|55555555|--------|

E |33333333|--------|33333333|--------|33333333|--------|--------|33333333|

******** ******** ******** ******** ******** ******** ******** ********

 

Verse 1

E |--------|--------|--------|--------|--------|--------|--------|--------|

B |--------|--------|--------|--------|--------|--------|--------|--------|

G |--------|77------|--------|77------|--------|55------|77------|--------|

D |55------|77------|55------|77------|55------|55------|77------|55------|

A |55------|55555555|55------|55555555|55------|33333333|55555555|55------|

E |33333333|--------|33333333|--------|33333333|--------|--------|33333333|

****** ****** ****** ****** ****** ****** ****** ******

 

Chorus

E |--------|--------|--------|--------|--------|--------|--------|--------|--------|

B |--------|--------|--------|--------|--------|--------|--------|--------|--------|

G |77777777|--------|55555555|--------|77777777|--------|55555555|77777777|7-------|

D |77777777|77777777|55555555|55555555|77777777|77777777|55555555|77777777|7-------|

A |55555555|77777777|33333333|55555555|55555555|77777777|33333333|55555555|5-------|

E |--------|55555555|--------|33333333|--------|55555555|--------|--------|--------|

Verse 2

E |--------|--------|--------|--------|--------|--------|--------|--------|

B |--------|--------|--------|--------|--------|--------|--------|--------|

G |--------|77------|--------|77------|--------|55------|--------|--57----|

D |55------|77------|55------|77------|55------|55------|--5---7-|-5-7----|

A |55------|55555555|55------|55555555|55------|33333333|-5---7--|3--5----|

E |33333333|--------|33333333|--------|33333333|--------|3---5---|--------|

****** ****** ****** ****** ****** ******

 

Chorus

E |--------|--------|--------|--------|--------|--------|--------|--------|--------|

B |--------|--------|--------|--------|--------|--------|--------|--------|--------|

G |77777777|--------|55555555|--------|77777777|--------|55555555|77777777|77777777|

D |77777777|77777777|55555555|55555555|77777777|77777777|55555555|77777777|77777777|

A |55555555|77777777|33333333|55555555|55555555|77777777|33333333|55555555|55555555|

E |--------|55555555|--------|33333333|--------|55555555|--------|--------|--------|

 

Solo (Possibly keyboard, but this is better than playing chords)

E |--------|--------|--------|--------|--------|--------|--------|--------|

B |--------|--------|--------|--------|--------|--------|--------|--------|

G |--------|--------|--------|986-----|--------|--------|--------|--------|

D |2--4--6-|9--7--6-|2--4--6-|---9--76|2--4--6-|6b-6--4-|4--21---|--------|

A |--------|--------|--------|--------|--------|--------|-------4|2--0----|

E |--------|--------|--------|--------|--------|--------|--------|----4---|

 

Verse 3

E |--------|--------|--------|--------|--------|--------|--------|--------|

B |--------|--------|--------|--------|--------|--------|--------|--------|

G |--------|--------|--------|--------|--------|--------|--------|--------|

D |--------|--------|--------|--------|--------|--------|--------|--------|

A |--------|--------|--------|--------|66666666|55555555|44444444|3-------|

E |33333333|22222222|11111111|00000000|--------|--------|--------|--------|

******** ******** ******** ******** ******** ******** ******** *

Chorus

E |--------|--------|--------|--------|--------|--------|--------|--------|

B |--------|--------|--------|--------|--------|--------|--------|--------|

G |77777777|--------|55555555|--------|77777777|--------|55555555|77777777|

D |77777777|77777777|55555555|55555555|77777777|77777777|55555555|77777777|

A |55555555|77777777|33333333|55555555|55555555|77777777|33333333|55555555|

E |--------|55555555|--------|33333333|--------|55555555|--------|--------|

 

Ending

E |--------|--------|--------|--------|--------|--------|--------|--------|

B |--------|--------|--------|--------|--------|--------|--------|--------|

G |77777777|--------|55555555|--------|77777777|--------|5555-57-|--------|

D |77777777|77777777|55555555|55555555|77777777|77777777|5555-575|--------|

A |55555555|77777777|33333333|55555555|55555555|77777777|3333-355|--------|

E |--------|55555555|--------|33333333|--------|55555555|-------3|--------|

 

 

Return to my to my Smash Mouth tabs page

The Tablature is Copyright its respective owners.

Sign Up For My Newsletter
Subscribe | Unsubscribe

Site Map | Disclaimer | Privacy Policy | Media Kit | Submissions/Corrections

Website © 2000-2014 mattsmusicpage.com. All rights reserved.

Legal & DMCA: Matt's Music Page has been providing lyrics and tabs in a legal way, paying royalties each year to a few organizations. Then, all lyrics and tabs were removed from the site. Now, there's a new owner to the site, which purchased it August 26, 2014, and he is in negotiation to obtain licensing from BMI at the moment. If you have a specific DMCA request -- please do not hesitate to contact me via the contact button on top. I will do my very best to keep this site fully legal.

Get our toolbar!