Your One-Stop Source For
Music Lyrics
Bass and Guitar Tabs
and More...
>Music Lyrics Bass and Guitar Tabs

 

The Tabs Are Below

Learn To Read Tab
Chords Handbook
Corrections & Additions
Get Official Tab
Smashing Pumpkins tabs @ 911Tabs

You're All I've Got Tonight

Smashing Pumpkins

 

 

progression 1:

|------------------------------------------------------|

|------------------------------------------------------|

|-------------------------9----------------------------|

|-------------------------9-9--------------------7-8-9-|

|-------------------------7-9--------------------7-8-9-|

|---------------------------7--------------------5-6-7-|

 

I dont care if you hurt me some more......

 

 

 

 

progression 2:

|----------------------------------|

|----------------------------------|

|----------------------------------|

|-5-X-5/7-7-7-7-7-7-7-7-7-7-7------|

|-5-X-5/7-7-7-7-7-7-7-7-7-7-7------|

|-3-X-3/5-5-5-5-5-5-5-5-5-5-5------|

 

you're all i got tonight

 

 

 

Return to my to my Smashing Pumpkins tabs page

The Tablature is Copyright its respective owners.

Sign Up For My Newsletter
Subscribe | Unsubscribe

Site Map | Disclaimer | Privacy Policy | Media Kit | Submissions/Corrections

Website © 2000-2014 mattsmusicpage.com. All rights reserved.

Legal & DMCA: Matt's Music Page has been providing lyrics and tabs in a legal way, paying royalties each year to a few organizations. Then, all lyrics and tabs were removed from the site. Now, there's a new owner to the site, which purchased it August 26, 2014, and he is in negotiation to obtain licensing from BMI at the moment. If you have a specific DMCA request -- please do not hesitate to contact me via the contact button on top. I will do my very best to keep this site fully legal.

Get our toolbar!

 

Vintage Cobalt Blue Pressed Glass Banjo Salt & Pepper w Yellow Plastic Tops
$19.99
Vintage Cobalt Blue Pressed Glass Banjo Salt & Pepper w Yellow Plastic Tops picture


Vintage New Haven Banjo Clock
$325.0
Vintage New Haven Banjo Clock picture


NOS SMALL GOLD EAGLE CLOCK (BANJO) FINIAL X23
$14.99
NOS SMALL GOLD EAGLE CLOCK (BANJO) FINIAL  X23 picture


Spooky Village Halloween Animated Musical Skeleton Banjo Player Sound Motion NEW
$29.99
Spooky Village Halloween Animated Musical Skeleton Banjo Player Sound Motion NEW picture


4 BANJO CLOCK EAGLES ALL ARE IN EXCELLENT CONDITION
$5.99
4 BANJO CLOCK EAGLES ALL ARE IN EXCELLENT CONDITION picture