Your One-Stop Source For
Music Lyrics
Bass and Guitar Tabs
and More...
Music Lyrics Bass and Guitar Tabs

 

The Tabs Are Below

Learn To Read Tab
Chords Handbook
Corrections & Additions
Get Official Tab
Smashing Pumpkins tabs @ 911Tabs

Song: Worms

Release: Ransom soundtrack

Artist: The Smashing Pumpkins

Author: Jonathan Frank

Tuning: Eb

 

-*-*-*-*-*-*-*-*-*-*-*-*-*-*-*-*-*-*-*-*-*-*-*-*-*-*-*-*-*-*-*-*-*-*-*-

 

 

---------------------|------------------------

-------------------.-|------------------------

--8---8--7-----5-----|------------------------

--8---8--7--7----7---|--15---7---15--12-------

--6---6--5--7------.-|--15---7---15--12-------

------------5--------|--13---5---13--10-------

 

 

---------------------|

-------------------.-|

--8---8--7-----5-----|

--8---8--7--7----7---|

--6---6--5--7------.-|

------------5--------|

 

drums come in

---------------------|

-------------------.-|

--8---8--7-----5-----|

--8---8--7--7----7---|

--6---6--5--7------.-|

------------5--------|

 

 

---------------------|

---------------------|

---------------------|

--15--7--15---12-----|

--15--7--15---12-----|

--13--5--13---10-----|

 

---------------------|

-------------------.-|

--8-8--7------14-----|

--8-8--7--7---14-----|

--6-6--5--7--/12---.-|

----------5----------|

 

---------------------

---------------------

---------------------

--7~-----------------

---------------------

---------5~----------

 

 

---------------------|

-------------------.-|

--8-8--7------14-----|

--8-8--7--7---14-----|

--6-6--5--7--/12---.-|

----------5----------|

 

---------------------|

-------------------.-|

---------------------|

--10--15---7---------|

--10--15---7-------.-|

--8---13---5---------|

 

---------------------|

-------------------.-|

---------------------|

--10---7-------------|

--10---7-----------.-|

--8----5-------------|

 

---------------------

---------------------

---------------------

-10---13--12---------

-10---13--12---------

--8---11--10---------

 

---------------------|

-------------------.-|

---------------------|

--10---7-------------|

--10---7-----------.-|

--8----5-------------|

 

---------------------

---------------------

---------------------

-10---13--12---------

-10---13--12---------

--8---11--10---------

 

---------------------|

-------------------.-|

--8-8--7------14-----|

--8-8--7--7---14-----|

--6-6--5--7--/12---.-|

----------5----------|

 

 

----------------------------------|

--------------------------------.-|

--8-8--7------12-12-13-13-14-14---|

--8-8--7--7---12-12-13-13-14-14---|

--6-6--5--7---10-10-11-11-12-12-.-|

----------5-----------------------|

 

---------------------

---------------------

---------------------

--13-----------------

--13-----------------

--11-----------------

 

Return to my to my Smashing Pumpkins tabs page

The Tablature is Copyright its respective owners.

Sign Up For My Newsletter
Subscribe | Unsubscribe

Site Map | Disclaimer | Privacy Policy | Media Kit | Submissions/Corrections

Website © 2000-2014 mattsmusicpage.com. All rights reserved.

Legal & DMCA: Matt's Music Page has been providing lyrics and tabs in a legal way, paying royalties each year to a few organizations. Then, all lyrics and tabs were removed from the site. Now, there's a new owner to the site, which purchased it August 26, 2014, and he is in negotiation to obtain licensing from BMI at the moment. If you have a specific DMCA request -- please do not hesitate to contact me via the contact button on top. I will do my very best to keep this site fully legal.

Get our toolbar!