Your One-Stop Source For
Music Lyrics
Bass and Guitar Tabs
and More...
Music Lyrics Bass and Guitar Tabs

 

The Tabs Are Below

Learn To Read Tab
Chords Handbook
Corrections & Additions
Get Official Tab
Smashing Pumpkins tabs @ 911Tabs

Song: With You

Release: demos

Artist: The Smashing Pumpkins

Author: Bill Martin <bmartin@tower-hill.pvt.k12.de.us>

Tuning: standard

Notes: acoustic

 

-*-*-*-*-*-*-*-*-*-*-*-*-*-*-*-*-*-*-*-*-*-*-*-*-*-*-*-*-*-*-*-*-*-*-*-

 

Intro:

 

Guitar 1 - Acoustic

 

F#7sus F#7sus E F#7sus F#7

e-0--0--0---------0--0--0--0---0--0--0---------0--0--0--0--0--0--0-|

B-0--0--0--2-0----0--0--0--0---0--0--0--2-0----0--0--0--2--2--2--2-|

G-3--3--3------3--3--3--3--1---3--3--3------3--3--3--3--3--3--3--3-|

D-4--4--4---------4--4--4--2---4--4--4---------4--4--4--4--4--4--4-|

A-4--4--4---------4--4--4--2---4--4--4---------4--4--4--4--4--4--4-|

E-2--2--2---------2--2--2--0---2--2--2---------2--2--2--0--0--0--0-|

 

Verse:

 

Guitar 1:

 

F#7sus E

 

e-0 e-0

B-0 B-0

G-3 and G-2

D-4 D-2

A-4 A-1

E-2 E-0

 

Six times each. Repeating.

 

Guitar 2:

 

\ = very quick slide

 

e----------------------------|

B--5\7-5--4--2---2--0--------|

G----------------------3-----|

D--------------------------4-|

A----------------------------|

E----------------------------|

 

 

During the verse James(guitar 2) comes in with

a little fill like this:

 

e----------0-----------0--|

B-------0-----------0-----|

G----3-----------1--------|

D-4-----------2-----------|

 

Chorus:

 

A G Bm

 

e-5 e-3 e-2

B-5 B-3 B-3

G-6 G-4 D-4

D-7 D-5 G-4

A-7 A-5 A-2

E-5 E-3 E-X

 

Strum A six times, strum G three times,

and strum Bm three times. Repeating.

 

 

Little Part after Chorus and before the Verse:

 

D Cadd9

 

e-2 e-0

B-3 B-3

G-2 G-0

D-0 D-2

A-0 A-3

E-0 E-X

 

Strum both the chords six times each. Repeating.

That's the song. There is some more lead fills and stuff that

I don't have in here but whoever's reading this should try to

figure them out and post them somewhere because this is a really

great song. The lead stuff that James puts in there reminds of

Rhinocerous. Anyway, hope you liked the tab.

 

Bill Martin

bmartin@tower-hill.pvt.k12.de.us

 

 

Return to my to my Smashing Pumpkins tabs page

The Tablature is Copyright its respective owners.

Sign Up For My Newsletter
Subscribe | Unsubscribe

Site Map | Disclaimer | Privacy Policy | Media Kit | Submissions/Corrections

Website © 2000-2014 mattsmusicpage.com. All rights reserved.

Legal & DMCA: Matt's Music Page has been providing lyrics and tabs in a legal way, paying royalties each year to a few organizations. Then, all lyrics and tabs were removed from the site. Now, there's a new owner to the site, which purchased it August 26, 2014, and he is in negotiation to obtain licensing from BMI at the moment. If you have a specific DMCA request -- please do not hesitate to contact me via the contact button on top. I will do my very best to keep this site fully legal.

Get our toolbar!