Your One-Stop Source For
Music Lyrics
Bass and Guitar Tabs
and More...
Music Lyrics Bass and Guitar Tabs

 

The Tabs Are Below

Learn To Read Tab
Chords Handbook
Corrections & Additions
Get Official Tab
Smashing Pumpkins tabs @ 911Tabs

Song: Why Am I So Tired

Release: Vieuphoria

Artist: The Smashing Pumpkins

Author: TCoe195835 <TCoe195835@aol.com>

Tuning: Dropped-D (D, A, D, G, B, e)

 

-*-*-*-*-*-*-*-*-*-*-*-*-*-*-*-*-*-*-*-*-*-*-*-*-*-*-*-*-*-*-*-*-*-*-*-

 

(riff #1)

-------------------------------------------------------------

-------------------------------------------------------------

-------------------------------------------------------------

--------5*b--------------------------------------------5*b---

-------------------------------------------------------------

--0---0----3--4--5--0--3--4--5--0--3--5--0---0---------------

 

then...

 

(riff #2)

----------------------------------------------------------

----------------------------------------------------------

----------------------------------------------------------

----------------------------------------------------------

------------------------0--3--4--5--6--7------------------

--0--3--4--5--6--7----------------------0--3--4--5--6--7--

 

-------------------------------------------------------------

-------------------------------------------------------------

-------------------------------------------------------------

-------------------------------------------------------------

--7--7--7--7--7--7--7--7--7--7--7--7\0------0--3--4--5--6--7-

-------------------------------------------------------------

 

Return to my to my Smashing Pumpkins tabs page

The Tablature is Copyright its respective owners.

Sign Up For My Newsletter
Subscribe | Unsubscribe

Site Map | Disclaimer | Privacy Policy | Media Kit | Submissions/Corrections

Website © 2000-2014 mattsmusicpage.com. All rights reserved.

Get our toolbar!