Your One-Stop Source For
Music Lyrics
Bass and Guitar Tabs
and More...
Music Lyrics Bass and Guitar Tabs

 

The Tabs Are Below

Learn To Read Tab
Chords Handbook
Corrections & Additions
Get Official Tab
Smashing Pumpkins tabs @ 911Tabs

Ugly

Smashing Pumpkins

 

 

Eb Tuning (Eb,Ab,Db,Gb,Bb,Eb)

 

*1 - Intro - Just the Same Chord Over and Over Again

 

Eb-|------------------------------------------------------------------|

Bb-|------------------------------------------------------------------|

Gb-|------------------------------------------------------------------|

Db-|-2----------------------------------------------------------------|

Ab-|-2----------------------------------------------------------------|

Eb-|-0----------------------------------------------------------------|

 

*2 - Verse

 

Eb-|------------------------------------------------------------------|

Bb-|------------------------------------------------------------------|

Gb-|------------------------------------------------------------------|

Db-|-2-2-2-2--5-5-5-5--10-10-10-10-10-10-10-10------------------------|

Ab-|-2-2-2-2--5-5-5-5--10-10-10-10-10-10-10-10------------------------|

Eb-|-0-0-0-0--3-3-3-3---8--8--8--8--8--8--8--8------------------------|

 

*3 - Chorus

 

Eb-|------------------------------------------------------------------|

Bb-|------------------------------------------------------------------|

Gb-|------------------------------------------------------------------|

Db-|-2-2-2-2-2-2-2-2--5-5-5-5-5-5-5-5--10-10-10-10-10-10-10-10--------|

Ab-|-2-2-2-2-2-2-2-2--5-5-5-5-5-5-5-5--10-10-10-10-10-10-10-10--------|

Eb-|-0-0-0-0-0-0-0-0--3-3-3-3-3-3-3-3---8--8--8--8--8--8--8--8--------|

 

Eb-|------------------------------------------------------------------|

Bb-|------------------------------------------------------------------|

Gb-|------------------------------------------------------------------|

Db-|-7-7-7-7-7-7-7-7--------------------------------------------------|

Ab-|-7-7-7-7-7-7-7-7--------------------------------------------------|

Eb-|-5-5-5-5-5-5-5-5--------------------------------------------------|

 

Eb-|------------------------------------------------------------------|

Bb-|------------------------------------------------------------------|

Gb-|------------------------------------------------------------------|

Db-|-2-2-2-2--5-5-5-5--10-10-10-10-10-10-10-10------------------------|

Ab-|-2-2-2-2--5-5-5-5--10-10-10-10-10-10-10-10------------------------|

Eb-|-0-0-0-0--3-3-3-3---8--8--8--8--8--8--8--8------------------------|

 

Eb-|------------------------------------------------------------------|

Bb-|------------------------------------------------------------------|

Gb-|------------------------------------------------------------------|

Db-|-2-2-2-2--5-5-5-5--10-10-10-10--7-7-------------------------------|

Ab-|-2-2-2-2--5-5-5-5--10-10-10-10--7-7-------------------------------|

Eb-|-0-0-0-0--3-3-3-3---8--8--8--8--5-5-------------------------------|

 

Eb-|------------------------------------------------------------------|

Bb-|------------------------------------------------------------------|

Gb-|------------------------------------------------------------------|

Db-|-2-2-2-2--5-5-5-5--10-10-10-10--7-7-------------------------------|

Ab-|-2-2-2-2--5-5-5-5--10-10-10-10--7-7-------------------------------|

Eb-|-0-0-0-0--3-3-3-3---8--8--8--8--5-5-------------------------------|

 

Eb-|------------------------------------------------------------------|

Bb-|------------------------------------------------------------------|

Gb-|------------------------------------------------------------------|

Db-|-2-2-2-2--5-5-5-5--10-10-10-10-10-10-10-10------------------------|

Ab-|-2-2-2-2--5-5-5-5--10-10-10-10-10-10-10-10------------------------|

Eb-|-0-0-0-0--3-3-3-3---8--8--8--8--8--8--8--8------------------------|

 

*4 - Verse 2

 

Eb-|------------------------------------------------------------------|

Bb-|------------------------------------------------------------------|

Gb-|------------------------------------------------------------------|

Db-|-2-2-2-2--5-5-5-5--10-10-10-10-10-10------------------------------|

Ab-|-2-2-2-2--5-5-5-5--10-10-10-10-10-10------------------------------|

Eb-|-0-0-0-0--3-3-3-3---8--8--8--8--8--8------------------------------|

 

Eb-|------------------------------------------------------------------|

Bb-|------------------------------------------------------------------|

Gb-|------------------------------------------------------------------|

Db-|-2-2-2-2--5-5-5-5--10-10-10-10--7-7-------------------------------|

Ab-|-2-2-2-2--5-5-5-5--10-10-10-10--7-7-------------------------------|

Eb-|-0-0-0-0--3-3-3-3---8--8--8--8--5-5-------------------------------|

 

Eb-|------------------------------------------------------------------|

Bb-|------------------------------------------------------------------|

Gb-|------------------------------------------------------------------|

Db-|-2-2-2-2--5-5-5-5--10-10-10-10-10-10------------------------------|

Ab-|-2-2-2-2--5-5-5-5--10-10-10-10-10-10------------------------------|

Eb-|-0-0-0-0--3-3-3-3---8--8--8--8--8--8------------------------------|

 

Eb-|-----------------------------------------------------------------|

Bb-|-----------------------------------------------------------------|

Gb-|-----------------------------------------------------------------|

Db-|-2-2-2-2--5-5-5-5--10-10-10-10--7-7------------------------------|

Ab-|-2-2-2-2--5-5-5-5--10-10-10-10--7-7------------------------------|

Eb-|-0-0-0-0--3-3-3-3---8--8--8--8--5-5------------------------------|

 

*5

 

Eb-|-----------------------------------------------------------------|

Bb-|-----------------------------------------------------------------|

Gb-|-----------------------------------------------------------------|

Db-|-12-12-12-12-12-12--10-10-10-10-10--2-2-2------------------------|

Ab-|-12-12-12-12-12-12--10-10-10-10-10--2-2-2------------------------|

Eb-|-10-10-10-10-10-10---8--8--8--8--8--0-0-0------------------------|

 

*6

 

Eb-|-----------------------------------------------------------------|

Bb-|-----------------------------------------------------------------|

Gb-|-----------------------------------------------------------------|

Db-|-2-2-2-2--5-5-5-5--10-10-10-10-10-10-10-10-----------------------|

Ab-|-2-2-2-2--5-5-5-5--10-10-10-10-10-10-10-10-----------------------|

Eb-|-0-0-0-0--3-3-3-3---8--8--8--8--8--8--8--8-----------------------|

 

Eb-|-----------------------------------------------------------------|

Bb-|-----------------------------------------------------------------|

Gb-|-----------------------------------------------------------------|

Db-|-2-2-2-2--5-5-5-5--10-10-10-10-10-10-10-10-----------------------|

Ab-|-2-2-2-2--5-5-5-5--10-10-10-10-10-10-10-10-----------------------|

Eb-|-0-0-0-0--3-3-3-3---8--8--8--8--8--8--8--8-----------------------|

 

Eb-|-----------------------------------------------------------------|

Bb-|-----------------------------------------------------------------|

Gb-|-----------------------------------------------------------------|

Db-|-2-2-2-2--5-5-5-5--10-10-10-10-10-10-10-10-----------------------|

Ab-|-2-2-2-2--5-5-5-5--10-10-10-10-10-10-10-10-----------------------|

Eb-|-0-0-0-0--3-3-3-3---8--8--8--8--8--8--8--8-----------------------|

 

Eb-|-----------------------------------------------------------------|

Bb-|-----------------------------------------------------------------|

Gb-|-----------------------------------------------------------------|

Db-|-2-2-2-2--5-5-5-5--10-10-10-10--7-7------------------------------|

Ab-|-2-2-2-2--5-5-5-5--10-10-10-10--7-7------------------------------|

Eb-|-0-0-0-0--3-3-3-3---8--8--8--8--5-5------------------------------|

 

Eb-|-----------------------------------------------------------------|

Bb-|-----------------------------------------------------------------|

Gb-|-----------------------------------------------------------------|

Db-|-2-2-2-2--5-5-5-5--10-10-10-10-10-10-10-10-----------------------|

Ab-|-2-2-2-2--5-5-5-5--10-10-10-10-10-10-10-10-----------------------|

Eb-|-0-0-0-0--3-3-3-3---8--8--8--8--8--8--8--8-----------------------|

 

Eb-|-----------------------------------------------------------------|

Bb-|-----------------------------------------------------------------|

Gb-|-----------------------------------------------------------------|

Db-|-2-2-2-2--5-5-5-5--10-10-10-10--7-7------------------------------|

Ab-|-2-2-2-2--5-5-5-5--10-10-10-10--7-7------------------------------|

Eb-|-0-0-0-0--3-3-3-3---8--8--8--8--5-5------------------------------|

 

Eb-|-----------------------------------------------------------------|

Bb-|-----------------------------------------------------------------|

Gb-|-----------------------------------------------------------------|

Db-|-2-2-2-2--5-5-5-5--10-10-10-10-10-10-10-10-----------------------|

Ab-|-2-2-2-2--5-5-5-5--10-10-10-10-10-10-10-10-----------------------|

Eb-|-0-0-0-0--3-3-3-3---8--8--8--8--8--8--8--8-----------------------|

 

Eb-|-----------------------------------------------------------------|

Bb-|-----------------------------------------------------------------|

Gb-|-----------------------------------------------------------------|

Db-|-2-2-2-2--5-5-5-5--10-10-10-10-10-10-10-10-----------------------|

Ab-|-2-2-2-2--5-5-5-5--10-10-10-10-10-10-10-10-----------------------|

Eb-|-0-0-0-0--3-3-3-3---8--8--8--8--8--8--8--8-----------------------|

 

 

Structure - *1,*2 x4,*3,*4,*3,*5 x9,*6

 

Lyrics -

Don't look in the mirror

Don't like what I see staring back at me

Everything is clearer

I'll never see what you see

 

It's not me

So beautiful and free

I'll never be what you need

Can't help at all

I was born so beautiful but no I'm ugly

 

And i rot in my skin

As a piece of me dies every day

I know I'm nothing

I know theres nothing I can't say to change

The judgement in there ways

I'll never be what you need

CAn't help at all

My love was so beautiful but no I'm ugly

 

Yeah, good enough but I don't care

I'm good enough but I'm not there

I'm good enough but I don't care

The sun is out but I'm not there

I'm good enough but I don't care

The sun is out but I'm not there

I'm good enough, good enough

 

Don't look in the mirror

I don't like what I see staring back at me

Everything is clearer

I'll never see what you see

And I rot in my skin

As a piece of me dies every day

I know I'm nothing

Because I'm Ugly

 

Return to my to my Smashing Pumpkins tabs page

The Tablature is Copyright its respective owners.

Sign Up For My Newsletter
Subscribe | Unsubscribe

Site Map | Disclaimer | Privacy Policy | Media Kit | Submissions/Corrections

Website © 2000-2014 mattsmusicpage.com. All rights reserved.

Legal & DMCA: Matt's Music Page has been providing lyrics and tabs in a legal way, paying royalties each year to a few organizations. Then, all lyrics and tabs were removed from the site. Now, there's a new owner to the site, which purchased it August 26, 2014, and he is in negotiation to obtain licensing from BMI at the moment. If you have a specific DMCA request -- please do not hesitate to contact me via the contact button on top. I will do my very best to keep this site fully legal.

Get our toolbar!