Your One-Stop Source For
Music Lyrics
Bass and Guitar Tabs
and More...
Music Lyrics Bass and Guitar Tabs

 

The Tabs Are Below

Learn To Read Tab
Chords Handbook
Corrections & Additions
Get Official Tab
Smashing Pumpkins tabs @ 911Tabs

Tribute to Johnny

Smashing Pumpkins

 

 

Tune 1/2 step down

 

 

fig. 1

-----------------------------------------------------------|

-----------------------------------------------------------|

-----------------------------------------------------------|

----------------------------------------------------------5|

-------------7\-5----------7\-5------------------5--5--7---|

----0--0--0-------0--0--0---------3--3--5--5--7------------|

 

p.m.--------------------------|

 

fig 2

-------------------------------------12---|

------------------------------------------|

----------------------12-12-14-p-12-------| THEN

----------12-12-14-14---------------------|

----14-14---------------------------------| after 2nd time---|

------------------------------------------| |

|

fig 3 |

---------------------------------------| |

----12hbr------------------------------| |

-------------12--11---9----------------| then back to |

-------------------------12---9--------| fig 2 |

---------------------------------------| |

---------------------------------------| |

|

|

| |

fig 4 |

----12--12---------------------------------------------<-----|

------------15--15---12--------------------------------------

--------------------------14--14---12--14hb(artificial harm.)

-------------------------------------------------------------

-------------------------------------------------------------

-------------------------------------------------------------

 

the next riff

fig 5

------------------------------------------------------------------------

------------------------------------------------------------------------

------------------------------------------------------------------------

-------------3------------------------------------3---------------------

----------------5--3--5-----------3--3---------------5--3--5------------

----3--4--5--------------3--4--5---------3--4--5--------------3--4--5--1

 

p.m.|------| p.m.|------| p.m.|------| p.m.|-------|

 

Okay. This next riff has to be done very presise. I play

it with many fast hammer-ons. (this helps achieve the the

weird sound) I think this is the correct way, but if anyone

else can do better, try. I know it seems weird at first, but

just try it. You'll get the feel.

 

fig 6

------------------------------------------------------------------------

------------------------------------------------------------------------

------------------------------------------------------------------------

-------------------------5--5-h-6-h-7----------5--5-h-6-h-7-------------

------------5--5-h-6-h-7-------------5-h-6-h-7--------------5-h-6-h-7---

-5-h-6-h-7--------------------------------------------------------------

 

Now on to the solo. It is based around some kind of a movable pentatonic

scale. Most of this is right, but there are a few mistakes I think.

There are many overdubbs and some of it is hard to hear, but most all

is correct. The first solo starts just after fig 4.

 

hb = halfbend vib. = vibrato fbr = fullbend release

fb = fullbend grad = gradual bend

/ \= slides hbr = halbend release

 

prebend

v

------------------13-p-9--12hb------------------------------------------

------------13fb-----------------13hbr-p-12-p-9--12hbr-p-10-h-12-p-10---

---12-p-10--------------------------------------------------------------

------------------------------------------------------------------------

------------------------------------------------------------------------

------------------------------------------------------------------------

 

fast(pick 1st note only)

|-------------------| feedback

v

--------------------------------------------------15fb------------------

------------------10-p-8-\-6-h-8-/-10-----------------------------------

---12-p-10--------------------------------------------------------------

----------------------------------------x--x-------------x--x--x--10vib.

------------12--------------------------x--x-------------x12x12x--------

----------------------------------------x--x-------------x--x--x--------

 

prebends

|------------|

----------------------------------------------------------------------

--------------------------13fb----------------------------------------

------------10fbr--10fbr------------------END OF FIRST SOLO!----------

--x--x--x-------------------------------------------------------------

--x12x12x-------------------------------------------------------------

--x--x--x-------------------------------------------------------------

 

 

 

2ND SOLO hold|----------------------------------|

------------------------------------------------------------------------

------------------------------------------------------------------------

---14-\-5--10fbr-10--12hb-12fb-12fb-12fb-12fb-12fb-12fb-----------------

------------------------------------------------------------------------

------------------------------------------------------------------------

------------------------------------------------------------------------

 

 

 

grad. fb + r very fast! (not sure how many times)

v |------------------------------------------------------|

 

-------------------------------------------------------------------------

-------------------------------------------------------------------------

--12fbr-p-10------12fbr-p-10----12fbr-p-10----12fbr-p-10----12fbr-p-10---

--------------12-------------12------------12------------12------------12

-------------------------------------------------------------------------

-------------------------------------------------------------------------

 

feedback

v

--10-13-13-13-p-12-h-13-13-p-12-10----------15fbr---15fb------19fbr-19fb

------------------------------------------------------------------------

------------------------------------------------------------------------

------------------------------------x--x-----------------x--x-----------

------------------------------------x--x-----------------x--x-----------

------------------------------------x--------------------x--x-----------

 

 

prebend

v

------------------------------------------------------------------------

------------------------------------------------------------------------

---------10-12-p-10-12-p-10-10-12fbr--12--10--12--10-h-12-p-10----------

----x-\--------------------------------------------------------12-p-10--

----x-\-----------------------------------------------------------------

----x-\-----------------------------------------------------------------

 

(Can't remember if this

bend is on the A or D string)

v

grad

v

------------------------------------------------------------------------

------------------------------------------------------------------------

------------------------------------------------------------------------

----------------------10fb----------------------------------------------

----12-p-10-------------------------------------------------------------

-------------12-p-10----------------------------------------------------

 

prebend prebend

(Last solo) over fig 6 v v

------------------------------------------------------------------------

------------------------------------------------------------------------

--15-h-17--14-12--14--14------------------------------------------12----

--------------------------11hbr---------------12-14-14fbr-p-12----------

---------------------------------14--12-h-14-------------------14-------

------------------------------------------------------------------------

 

 

 

---12-------15--17--17--17fb---|

-------12----------------------|

-------------------------------|

-------------------------------|

-------------------------------|

-------------------------------|

 

Return to my to my Smashing Pumpkins tabs page

The Tablature is Copyright its respective owners.

Sign Up For My Newsletter
Subscribe | Unsubscribe

Site Map | Disclaimer | Privacy Policy | Media Kit | Submissions/Corrections

Website © 2000-2014 mattsmusicpage.com. All rights reserved.

Legal & DMCA: Matt's Music Page has been providing lyrics and tabs in a legal way, paying royalties each year to a few organizations. Then, all lyrics and tabs were removed from the site. Now, there's a new owner to the site, which purchased it August 26, 2014, and he is in negotiation to obtain licensing from BMI at the moment. If you have a specific DMCA request -- please do not hesitate to contact me via the contact button on top. I will do my very best to keep this site fully legal.

Get our toolbar!

 

1939 LYRIC THEATRE New York PHOTO
$5.83
1939 LYRIC THEATRE New York PHOTO picture


Star Spangled Banner or Marines Hymn lyrics signed by WWII Charles W. Lindberg
$10.0
Star Spangled Banner or Marines Hymn lyrics signed by WWII Charles W. Lindberg picture


OLD LARGE HISTORIC PHOTO OF THE LYRIC THEATRE, SYDNEY c1930s, WAR BONDS BOOTH
$7.42
OLD LARGE HISTORIC PHOTO OF THE LYRIC THEATRE, SYDNEY c1930s, WAR BONDS BOOTH picture


SONG OF REVOLUTION CARD SET WITH 13 MOST FAVORED COMMUNIST SONGS LYRICS + NOTES
$24.99
SONG OF REVOLUTION CARD SET WITH 13 MOST FAVORED COMMUNIST SONGS LYRICS + NOTES picture


OLD LARGE HISTORIC PHOTO OF THE LYRIC THEATRE, SYDNEY c1930s, WAR LOANS BOOTH
$7.42
OLD LARGE HISTORIC PHOTO OF THE LYRIC THEATRE, SYDNEY c1930s, WAR LOANS BOOTH picture