Your One-Stop Source For
Music Lyrics
Bass and Guitar Tabs
and More...
>Music Lyrics Bass and Guitar Tabs

 

The Tabs Are Below

Learn To Read Tab
Chords Handbook
Corrections & Additions
Get Official Tab
Smashing Pumpkins tabs @ 911Tabs

------========================================------

----===I'VE HAD A COUPLE REQUESTS FOR THIS SONG===----

----===SO HERE IT IS--TONITE REPRISE--OFF THE===----

----=== TONIGHT, TONIGHT SINGLE, FROM THE ===----

----=== AREOPLANE FLIES HIGH BOXED SET ===----

------------==============================------------

TABBED BY ADAM GIERL

GULTARKLNG@AOL.COM

 

ENTER IN THE VERSE RIFF

 

And the embers never fade, in my city by the lake,

 

The place, where, I was born,

 

As the windup toys wind down,

 

Muffling the sound, of a life hidden underground,

 

Believe, Believe in me, Believe, Believe

 

(riff 1)

 

(G) (E) (Riff 1)

That you can change, that you're not stuck in vain,

 

(G) (E)

We're not the same, we're different,

 

(G) (Riff 2) (Riff 2) (Riff 2) (Riff 2)

Tonight, Tonight, Tonight Tonight,

 

(G) (D) (Riff 3)

We'll crucify the insincere Tonight, Tonight,

 

(G) (D) (Riff 3)

The impossible is possible Tonight, Tonight

 

(E slow strum)

Believe in me like I believe in you,

S.S=SLOW STRUM

(verse repeated several times) (G s.s) (D s.s.) (C s.s)

 

Tonight, Tonight, Tonight, Tonight

 

 

verse riff

 

---------------------------------------------------------------

---------------------------------------------------------------

---0-----0-----0---0-----0-----0-------------------------------

-----0-----0---------0-----0-----------------------------------

-4-----4-----4---3-----3-----3---------------------------------

---------------------------------------------------------------

 

Riff 1

 

-----2-2-----2-2-----------------------------------------------

-----0-0-----3-3---1-------------------------------------------

-----0-0-----2-2-----0-------0---------------------------------

-----0-0-----0-0-------2---2-----------------------------------

-2-2-2-2-0-0-----3-------3-------------------------------------

-3-3-3-3-0-0-----0---------------------------------------------

 

Riff 2

 

e--2---2-2-2---2-2-0---0-0---------------------------------------

B--0---0-0-3---3-3-1---1-1---------------------------------------

G--0---0-0-2---2-2-0---0-0---------------------------------------

D--0---0-0-0---0-0-2---2-2---------------------------------------

A--2---2-----------3---3-3---------------------------------------

E--3---3---------------------------------------------------------

D D U D D U D D U

 

Riff 3

 

e-----2-2-----2-2-----------------------------------------------

B-----0-0-----3-3---1-------------------------------------------

G-----0-0-----2-2---0-0-----------------------------------------

D-----0-0-----0-0---2-2-----------------------------------------

A-2-2-2-2-0-0-----3---3-----------------------------------------

E-3-3-3-3-0-0-----0---------------------------------------------

 

 

 

 

 

Return to my to my Smashing Pumpkins tabs page

The Tablature is Copyright its respective owners.

Sign Up For My Newsletter
Subscribe | Unsubscribe

Site Map | Disclaimer | Privacy Policy | Media Kit | Submissions/Corrections

Website © 2000-2014 mattsmusicpage.com. All rights reserved.

Legal & DMCA: Matt's Music Page has been providing lyrics and tabs in a legal way, paying royalties each year to a few organizations. Then, all lyrics and tabs were removed from the site. Now, there's a new owner to the site, which purchased it August 26, 2014, and he is in negotiation to obtain licensing from BMI at the moment. If you have a specific DMCA request -- please do not hesitate to contact me via the contact button on top. I will do my very best to keep this site fully legal.

Get our toolbar!

 

BRAND NEW KEY OF C HOHNER MINI HARMONICA HARP KEYRING KEYCHAIN KEY RING CHAIN
$8.21
BRAND NEW KEY OF C HOHNER MINI HARMONICA HARP KEYRING KEYCHAIN KEY RING CHAIN picture


RISING SONS BAND *2X3 FRIDGE MAGNET* VOCALS GUITAR MANDOLIN DOBRO HARMONICA SONG
$3.99
RISING SONS BAND *2X3 FRIDGE MAGNET* VOCALS GUITAR MANDOLIN DOBRO HARMONICA SONG picture


Vtg Christmas Angel Baby Girl W Harmonica Boy W Book SET OF 2 W GOLD WINGS
$125.0
Vtg Christmas Angel Baby Girl W Harmonica Boy W Book SET OF 2 W GOLD WINGS  picture


Beautiful Hand Carved Jewelry Trinket Jewelry Box Harmonica Case Bone And Brass
$14.5
Beautiful Hand Carved Jewelry Trinket Jewelry Box Harmonica Case Bone And Brass picture


BRAND NEW* HOHNER BOB DYLAN SIGNATURE LIMITED EDITION HARMONICA COLLECTORS ITEM
$140.19
BRAND NEW* HOHNER BOB DYLAN SIGNATURE LIMITED EDITION HARMONICA COLLECTORS ITEM picture