Your One-Stop Source For
Music Lyrics
Bass and Guitar Tabs
and More...
Music Lyrics Bass and Guitar Tabs

 

The Tabs Are Below

Learn To Read Tab
Chords Handbook
Corrections & Additions
Get Official Tab
Smashing Pumpkins tabs @ 911Tabs

Smashing Pumpkins

Tonight, Tonight

 

Chords of magic:

 

eb--3--0---1-----x----

Bb--3--0---1-----3----

Gb--0--0---0-----2----

Db--0--2---2-----0----

Ab--2--2---3-----x----

Eb--3--x---x-----x----

G Em Cadd9 D

 

The fingerpicking part for the verses:

repeat a few times

 

eb------------------------------------------------------ |

Bb-----0--------0--------0-----0--------0--------0------o|

Gb--------0--------0--------------0--------0------------ |

Db-----------0--------0--------------0--------0--------- |

Ab--4-----------------------3---------------------------o|

Eb------------------------------------------------------ |

t r m i r m i r t r m i r m i r

 

t: thumb, r: ring, m: middle, i: index

 

 

Return to my to my Smashing Pumpkins tabs page

The Tablature is Copyright its respective owners.

Sign Up For My Newsletter
Subscribe | Unsubscribe

Site Map | Disclaimer | Privacy Policy | Media Kit | Submissions/Corrections

Website © 2000-2014 mattsmusicpage.com. All rights reserved.

Legal & DMCA: Matt's Music Page has been providing lyrics and tabs in a legal way, paying royalties each year to a few organizations. Then, all lyrics and tabs were removed from the site. Now, there's a new owner to the site, which purchased it August 26, 2014, and he is in negotiation to obtain licensing from BMI at the moment. If you have a specific DMCA request -- please do not hesitate to contact me via the contact button on top. I will do my very best to keep this site fully legal.

Get our toolbar!