Your One-Stop Source For
Music Lyrics
Bass and Guitar Tabs
and More...
Music Lyrics Bass and Guitar Tabs

 

The Tabs Are Below

Learn To Read Tab
Chords Handbook
Corrections & Additions
Get Official Tab
Smashing Pumpkins tabs @ 911Tabs

Smashing Pumpkins "Today"

 

E B A F G D C

- 6 4 1 3 - 8

- 6 4 1 3 - 8

8 7 5 2 4 7 9

8 8 6 3 5 7 10

6 8 6 3 5 5 10

6 6 4 1 3 5 8

 

Rythem 1: X-X-X--XX (Rythem 1b: X-X-XXX)

Rythem 2: X-XX-X-XX-X-X-XXXX

Rythem 3: X-X-X-X--X-X--XXXX

Rythem 4: X-X-X-X-X-X-X-X-X-X-X-X-XX-XXXX

The Chord Will Be Written With The Rythem...

Example: F3=(F Chord+Rythem 3)

Example: (G/D)3 = (Half of Rythem 3 is the G Chord.. and the Other half is D)

Just listen to the song and look at the rythem and you will figure it out

 

Intro:(4 Times as solo the 8 Times with band on the Chords)

--11------13------11-------15-11------

------11------11------11-----------11--

----------------------------------------

----------------------------------------

----------------------------------------

----------------------------------------

 

Band Intro:

E1 B1 A2

E1 B1 A2

E1 B1 C1 A1b

E1 B1 A3

 

Slow Part

---------------------------------------------------------------

-------------------------------------------------------8-------

-------8--------------10-------8-------10-------8--8-----8----

-8--8----8--8--8--8------8--8----8--8-----8--8-------------8-

---------------------------------------------------------------

---------------------------------------------------------------

 

(quiet)

Today is the greatest day I've ever known

E1 B1 A2

 

Can't live for tomorrow... Tomorrow's much too long

E1 B1 A2

 

I'll burn my eyes out

E1 B1 A2

 

Before I get out

E1 B1 C3

 

(Distortion)

I wanted more... Than life could ever grant me

F1 A1 C2 F1 A1 C2

 

Bored by the Chore... Of saving face

F1 A1 C2 F1 A1 (G/D)3

 

(Quiet)

Today is the greatest day I've ever known

E1 B1 A2

 

Can't wait for tomorrow, I might not have that long

E1 B1 A2

 

I'll tear my heart out... Before I get out

E1 B1 A2 E1 B1 C3

 

(Distortion)

Pink ribbon scars that never forget

F1 A1 E1 B1b

 

I've tried so hard to cleanse these regrets

F1 A1 E1 B1b

 

My angel wings... were brusied and restrained

F1 A1 E1 B1b

 

My belly stings

F1 A1 (G/D)3

 

Today is... Today is... Today is... The Greatest!...

E1 B1 E1 A1b E1 B1 E1 A1b

 

Day I've ever knooo o ooo.. heeeyyyyy hooooo....

E1 B1 (C/A)3 E1 B1 C4

 

I want to turn you on.... I want to turn yoooou onnnn..

F1 A1 C3 F1 A1 C3

 

I want to turn you on.... I want to turn you...

F1 A1 C3 F1 A2

 

Today is the Greatest... Today is the greatest... day...

E1 B1 A2 E1 B1 A2

 

Today is the greatest...day of all...I have ever... really known!...

E1 B1 C1 A1b E1 B1 (C/A)3 (E/HOLD)

 

SOLO: Bend Part 6 Times ::

-------------------------------::-----------------------

-------------------------------::-----------------------

-13~~~~~13B15B13-----------:: 13-11-13-10-12-9~~~

-------------------------------::-----------------------

-------------------------------::-----------------------

-------------------------------::-----------------------

 

Outro is the same as the Lead intro.

 

-11-----13-----11---15--11---

----11-----11-----11--------11

 

 

Return to my to my Smashing Pumpkins tabs page

The Tablature is Copyright its respective owners.

Sign Up For My Newsletter
Subscribe | Unsubscribe

Site Map | Disclaimer | Privacy Policy | Media Kit | Submissions/Corrections

Website © 2000-2014 mattsmusicpage.com. All rights reserved.

Legal & DMCA: Matt's Music Page has been providing lyrics and tabs in a legal way, paying royalties each year to a few organizations. Then, all lyrics and tabs were removed from the site. Now, there's a new owner to the site, which purchased it August 26, 2014, and he is in negotiation to obtain licensing from BMI at the moment. If you have a specific DMCA request -- please do not hesitate to contact me via the contact button on top. I will do my very best to keep this site fully legal.

Get our toolbar!