Your One-Stop Source For
Music Lyrics
Bass and Guitar Tabs
and More...
Music Lyrics Bass and Guitar Tabs

 

The Tabs Are Below

Learn To Read Tab
Chords Handbook
Corrections & Additions
Get Official Tab
Smashing Pumpkins tabs @ 911Tabs

To Forgive

Smashing Pumpkins

 

 

1/2 step down

 

Intro (Fig 1)

*

|--------------|---------------|------------------|---------|

|------------3-|---------------|------------------|---------|

|-------2------|---------------|------------------|---------|

|----0-----0---|-------2-----2-|-------4----4---4-|---------|

|--------------|----0-----0----|----2-----2-------|-2-0-----|

|--3-----------|-2-------------|-0------------0---|-----0-2-|

 

* At times this note is played with a 2 on the G-string as well.

 

|----------------------------------------------------|

|------------0-----------0---------------------------|

|------------0-----------0---------------------------|

|----------------------------------------------------|

|----------------------------------------------------|

|--7---/9-\5----0---2--3-----------------------------|

 

Really unsure about the open strings up there :)

 

CHORUS - Main riff except where it says "Nothing is Important"

it goes to this instead of the normal bit.

 

|-------------|---------------------------------------|

|-------3-----|---------------------------------------|

|-------2-----|-----0---------------------------------|

|----4------4-|-----2---------------------------------|

|-2-------2---|---2-----------------------------------|

|-------------|-0-------------------------------------|

 

The rise thingy goes like this

* Same octave as previous

A....B....C#....D..E..F#....G....A....B..C#

Back down.. *

Higher Octave then previous

A....B....C#....D..E

Back down again

 

B...C#...D..E..F

 

Back to the main thingy.

 

 

I hope you like it. I LOVE this song..Darcy and Billy sound

great together.

 

 

--------------------------------------------------------------------------------

To Forgive

Smashing Pumpkins

 

Tune Down 1/2 step

 

main riff:

D9/G A5/F# B5/E a

e--------0----------------------------

b-------2-----------------------------

g-----3-------------------------------

d-------------2--2----4--4----4-------

a-----------0---0---2---2--2-2---2-0--

e-3-------2-------0-------------------

 

repeats 2x then:

B C# A E F# G

g--4--/6-------------------------------------

d--4--/6--7----2--/4--5----------------------

a--2--/4--7----2--/4--5----------------------

e---------5----0--/2--3----------------------

(band comes in here)

 

repeats 2x then back to main riff for verse

Òten times we moved...Ó

 

goes to chords when he goes Òright as rain....Ó

B C# A E F# G

 

then chorus you strum these chords in half notes until the B5/E:

 

holding back the.....fool a- gain...

G D/F# E B5/E a

g--0-----------------2------------------------

d--0-----------------0-------2---4--4----4----

a--2-----------------0-------2-2---2--2-2--2-0

e--3-----------------2-------0----------------

 

holding back the.....fool pretends...

G D/F# E B5/E a

g--0-----------------2------------------------

d--0-----------------0-------2---4--4----4----

a--2-----------------0-------2-2---2--2-2--2-0

e--3-----------------2-------0----------------

 

 

I forget you... ..forget... nothing is...important...

G D/F# B A

g--0----------------2---------4------------2-----

d--0----------------0---------4------------2-----

a--2----------------0---------2------------0-----

e--3----------------2----------------------------

 

holding back the.....fool a-.gain...

G D/F# E B5/E a

g--0-----------------2------------------------

d--0-----------------0-------2---4--4----4----

a--2-----------------0-------2-2---2--2-2--2-0

e--3-----------------2-------0----------------

 

then the verse part again...

 

ÒI sensed my loss...Ó

 

this time on the verse it stays on the riff without going to the chords

 

then, on the chorus the last time, instead of going down to the E:

 

holding back the....fool a-...gain...

G D/F# A

g--0-----------------2--------2--

d--0-----------------0--------2--

a--2-----------------0--------0--

e--3-----------------2-----------

 

 

Return to my to my Smashing Pumpkins tabs page

The Tablature is Copyright its respective owners.

Sign Up For My Newsletter
Subscribe | Unsubscribe

Site Map | Disclaimer | Privacy Policy | Media Kit | Submissions/Corrections

Website © 2000-2014 mattsmusicpage.com. All rights reserved.

Legal & DMCA: Matt's Music Page has been providing lyrics and tabs in a legal way, paying royalties each year to a few organizations. Then, all lyrics and tabs were removed from the site. Now, there's a new owner to the site, which purchased it August 26, 2014, and he is in negotiation to obtain licensing from BMI at the moment. If you have a specific DMCA request -- please do not hesitate to contact me via the contact button on top. I will do my very best to keep this site fully legal.

Get our toolbar!