Your One-Stop Source For
Music Lyrics
Bass and Guitar Tabs
and More...
Music Lyrics Bass and Guitar Tabs

 

The Tabs Are Below

Learn To Read Tab
Chords Handbook
Corrections & Additions
Get Official Tab
Smashing Pumpkins tabs @ 911Tabs

 

THIS IS THE TAB TO "THIRTY THREE" BY SMASHING PUMPKINS

 

 

INTRO:

 

G G

e --3--2-2-3-3-3-3--5-5-5-5-----3--2-2-3-3-3-3--5/7-7-7-7----------------

B --0------0-0-0-0--0-0-0-0-----0------0-0-0-0----0-0-0-0----------------

G --0---------------------------0----------------------------------------

D --0---------------------------0----------------------------------------

A --2---------------------------2----------------------------------------

E --3---------------------------3----------------------------------------

 

 

 

VERSE:

 

C D G

e --0-0--0--0----2-2--2--2----3--2-2-3-3-3-3--5-5-5-5---------------------

B --1-1--1--1----3-3--3--3----0------0-0-0-0--0-0-0-0---------------------

G --0-0--0--0----2-2--2--2----0-------------------------------------------

D --2-2--2--2----0-0--0--0----0-------------------------------------------

A --3-3--3--3-----------------2-------------------------------------------

E ----------------------------3-------------------------------------------

 

SPEAK TO ME IN A LANGUAGE I CAN HEAR ...

 

 

 

CHORUS:

 

G C D

e --3--2-2-3-3-3-3--5/7-7-7-7----0-0--0--0----2-2--2--2-------------------

B --0------0-0-0-0----0-0-0-0----1-1--1--1----3-3--3--3-------------------

G --0----------------------------0-0--0--0----2-2--2--2-------------------

D --0----------------------------2-2--2--2----0-0--0--0-------------------

A --2----------------------------3-3--3--3--------------------------------

E --3---------------------------------------------------------------------

 

CAN MAKE IT LAST FOREVER YOU ...

 

 

 

ENDING:

 

 

SAME AS INTRO AND END ON G

 

 

 

THATS ALL 4 NOW

 

METH4LUNCH @ AOL.COM

 

Return to my to my Smashing Pumpkins tabs page

The Tablature is Copyright its respective owners.

Sign Up For My Newsletter
Subscribe | Unsubscribe

Site Map | Disclaimer | Privacy Policy | Media Kit | Submissions/Corrections

Website © 2000-2014 mattsmusicpage.com. All rights reserved.

Legal & DMCA: Matt's Music Page has been providing lyrics and tabs in a legal way, paying royalties each year to a few organizations. Then, all lyrics and tabs were removed from the site. Now, there's a new owner to the site, which purchased it August 26, 2014, and he is in negotiation to obtain licensing from BMI at the moment. If you have a specific DMCA request -- please do not hesitate to contact me via the contact button on top. I will do my very best to keep this site fully legal.

Get our toolbar!