Your One-Stop Source For
Music Lyrics
Bass and Guitar Tabs
and More...
Music Lyrics Bass and Guitar Tabs

 

The Tabs Are Below

Learn To Read Tab
Chords Handbook
Corrections & Additions
Get Official Tab
Smashing Pumpkins tabs @ 911Tabs

Song: Terrapin

Release: I Am One single

Artist: The Smashing Pumpkins

Author: 1. Dave Fleming <dave@eng.umd.edu>

2. Brian McCall <bpmccal@hubcap.clemson.edu>

Tuning: standard

Notes: Syd Barrett cover

 

-*-*-*-*-*-*-*-*-*-*-*-*-*-*-*-*-*-*-*-*-*-*-*-*-*-*-*-*-*-*-*-*-*-*-*-

 

Version 1

--------

 

VERSE 1

 

E G

I really love you, and I mean you

E G A

The star above you, crystal blue

D E A

Well, oh baby, my hair's on end about you

 

TRANSITION: C G

 

VERSE 2

 

I wouldn't see you, and I love to

I fly above you, yes I do

Well, oh baby, my hair's on end about you

 

TRANSITION: C G G# A

 

BRIDGE (?)

 

A

Floating, bumping, noses dodge a tooth

A C G Bb E

The fins a luminous

 

A

Fangs all 'round the clown is dark

A

Below the boulders hiding

C G E

All the sunlight's good for us

 

VERSE 3

 

Cause we're the fishes and all we do

The move about is all we do

Well, oh baby, my hair's on end about you

 

SOLO 1 (Played over the verse chords, using the same kinds

of transitions as shown above to lead in)

 

REPEAT BRIDGE

 

SOLO 2 (Played over the verse chords, using the same kinds

of transitions as shown above to lead in)

 

REPEAT VERSE 1

 

END

 

 

Notes: I basically use all E and A shape barre chords for this,

which makes it an easy and fun song to play.

 

The lyrics listed for the bridge were provided by

Graham Clarke (graham.clarke@canrem.com)

 

Enjoy,

Dave

 

---------------------------------------------------------------------

 

Version 2

---------

 

|--------------------------------------------------

|----------------0---2---2---0---3---3---3---------

|--------------------------------------------------

|-1--/2--1--/2-2---2---2---2---2---2---2-----------

|--------------------------------------------------

|--------------------------------------------------

 

or

 

|--------------------------------------------------

|----------------2---2-------3---3---3-------------

|-3--/4--3--/4-----------4-------------------------

|-1--/2--1--/2-2---2---2---2---2---2---------------

|--------------------------------------------------

|--------------------------------------------------

 

(incomplete?)

 

Return to my to my Smashing Pumpkins tabs page

The Tablature is Copyright its respective owners.

Sign Up For My Newsletter
Subscribe | Unsubscribe

Site Map | Disclaimer | Privacy Policy | Media Kit | Submissions/Corrections

Website © 2000-2014 mattsmusicpage.com. All rights reserved.

Legal & DMCA: Matt's Music Page has been providing lyrics and tabs in a legal way, paying royalties each year to a few organizations. Then, all lyrics and tabs were removed from the site. Now, there's a new owner to the site, which purchased it August 26, 2014, and he is in negotiation to obtain licensing from BMI at the moment. If you have a specific DMCA request -- please do not hesitate to contact me via the contact button on top. I will do my very best to keep this site fully legal.

Get our toolbar!