Your One-Stop Source For
Music Lyrics
Bass and Guitar Tabs
and More...
Music Lyrics Bass and Guitar Tabs

 

The Tabs Are Below

Learn To Read Tab
Chords Handbook
Corrections & Additions
Get Official Tab
Smashing Pumpkins tabs @ 911Tabs

Song: Sun

Release: demos

Artist: The Smashing Pumpkins

Author: Denny Hilton <ZERO@dcexhib.demon.co.uk>

Tuning: dropped D

Notes: The song has only these main riffs and singing.

 

-*-*-*-*-*-*-*-*-*-*-*-*-*-*-*-*-*-*-*-*-*-*-*-*-*-*-*-*-*-*-*-*-*-*-*-

 

hb = half bend

fb = full bend

fbr = fullbend release

h = hammer on

p = pull off

 

 

First riff:

 

-------------------------------------------------

-------------------------------------------------

-------------------------------------------------

-------7fb-------5-------5-h-7---7\--------------

-------------------------------------------------

---0---------0-------0----------------0----------

 

First riff #2:

 

------------------------------------------------------

------------------------------------------------------

----------------------------------------------14\-----

-------7fb-------5-------4h5---4h5p4p2---0------\-----

----------------------------------------------12\-----

---0---------0-------0-------------------0------------

 

Second Riff:

 

------------------------------------------------------------------------

------------------------------------------------------------------------

-14---14---14---15---17---17---17---X---15---15---15---X---14---14---14-

------------------------------------X------------------X----------------

-12---12---12---13---15---15---15---X---13---13---13---X---12---12---12-

------------------------------------------------------------------------

 

Third Riff (enter singing):

 

------------------------------------

----------5-------2------2----------

--7---7-------7---3---3-----3-------

------------------0-----------------

--5---------------0-----------------

--0---------------0-----------------

 

Return to my to my Smashing Pumpkins tabs page

The Tablature is Copyright its respective owners.

Sign Up For My Newsletter
Subscribe | Unsubscribe

Site Map | Disclaimer | Privacy Policy | Media Kit | Submissions/Corrections

Website © 2000-2014 mattsmusicpage.com. All rights reserved.

Legal & DMCA: Matt's Music Page has been providing lyrics and tabs in a legal way, paying royalties each year to a few organizations. Then, all lyrics and tabs were removed from the site. Now, there's a new owner to the site, which purchased it August 26, 2014, and he is in negotiation to obtain licensing from BMI at the moment. If you have a specific DMCA request -- please do not hesitate to contact me via the contact button on top. I will do my very best to keep this site fully legal.

Get our toolbar!