Your One-Stop Source For
Music Lyrics
Bass and Guitar Tabs
and More...
Music Lyrics Bass and Guitar Tabs

 

The Tabs Are Below

Learn To Read Tab
Chords Handbook
Corrections & Additions
Get Official Tab
Smashing Pumpkins tabs @ 911Tabs

Stumbleine

Smashing Pumpkins

 

 

Tune 1/2 step down

 

*1

 

Eb-|-2---------2---------3---------2----------------------------------|

Bb-|------------------------------------------------------------------|

Gb-|-----0-------0---0-------0-------0---0----------------------------|

Db-|---4---4---------------5---5-------4------------------------------|

Ab-|-5-------------5-----5--------------------------------------------|

Eb-|------------------------------------------------------------------|

 

 

*2

 

Eb-|------------------------------------------------------------------|

Bb-|------------------------------------------------------------------|

Gb-|------------------------------------------------------------------|

Db-|---0-------0---0-----0--------0-----------------------------------|

Ab-|-----9---9---------9--------7-------------------------------------|

Eb-|-7-----7-----7---7-----0--5-------5-------------------------------|

 

 

*3

 

Eb-|------------------------------------------------------------------|

Bb-|------------------------------------------------------------------|

Gb-|------------------------------------------------------------------|

Db-|---0-------0---0-----0--------0----------0-----0----------0-----0-|

Ab-|-----9---9---------9--------7----------5-----5----------7-----7---|

Eb-|-7-----7-----7---7-----0--5-----5--0-3-----3-----3--/--5-----5----|

 

 

Eb-|------------------------------------------------------------------|

Bb-|------------------------------------------------------------------|

Gb-|------------------------------------------------------------------|

Db-|----------0-------0---0---------0-----0---0--------0-----0---0----|

Ab-|-------10------10-------------5-----5------------7-----7----------|

Eb-|-5-/-8-------8------8----0--3-----3-----3---/--5-----5-----5------|

 

 

Eb-|------------------------------------------------------------------|

Bb-|------------------------------------------------------------------|

Gb-|------------------------------------------------------------------|

Db-|-----0-----0----0-------------------------------------------------|

Ab-|---9-----9--------------------------------------------------------|

Eb-|-7-----7-----7----------------------------------------------------|

 

 

*4

 

Eb-|------------------------------------------------------------------|

Bb-|------------------------------------------------------------------|

Gb-|------------------------------------------------------------------|

Db-|---0-------0---0-----0--------0----------0-----0----------0-----0-|

Ab-|-----9---9---------9--------7----------5-----5----------7-----7---|

Eb-|-7-----7-----7---7-----0--5-----5--0-3-----3-----3--/--5-----5----|

 

 

Eb-|------------------------------------------------------------------|

Bb-|------------------------------------------------------------------|

Gb-|------------------------------------------------------------------|

Db-|----------0-------0---0---------0-----0---0--------0-----0---0----|

Ab-|-------10------10-------------5-----5------------7-----7----------|

Eb-|-5-/-8-------8------8----0--3-----3-----3---/--5-----5-----5------|

 

 

Eb-|------------------------------------------------------------------|

Bb-|------------------------------------------------------------------|

Gb-|-----0-----0-----------0-----------------------------------0------|

Db-|---4-----4-----4-----4----------0--------0-----0---0-----4--------|

Ab-|-2-----2-----2-----5----------7--------5-----5---------5----------|

Eb-|-------------------------0--5-----0--3-----3-----3----------------|

 

 

Eb-|------------------------------------------------------------------|

Bb-|------------------------------------------------------------------|

Gb-|------------------------------------------------------------------|

Db-|--------0-------0------0---0-------0------0----0-----0-----0---0--|

Ab-|------7--------5-----5----------10-----10----------5-----5--------|

Eb-|-0--5-----0--3-----3-----3----8------8------8----3-----3-----3----|

 

 

Eb-|------------------------------------------------------------------|

Bb-|------------------------------------------------------------------|

Gb-|-----0------------------------------------------------------------|

Db-|---4----------0--------0-----0-----------0--------0--------0------|

Ab-|-5----------7--------5-----5-----------0--------0--------0--------|

Eb-|-------0--5-----0--3-----3-----3-/--10-----0--5-----0--3----------|

 

 

Eb-|------------------------------------------------------------------|

Bb-|------------------------------------------------------------------|

Gb-|------------------------------------------------------------------|

Db-|-----0---------0-----0---0-------0-----0--------------------------|

Ab-|---0---------9-----9-----------5-----5----------------------------|

Eb-|-3-----3-/-8-----8-----8-----3-----3-----3------------------------|

 

 

*5

 

Eb-|------------------------------------------------------------------|

Bb-|------------------------------------------------------------------|

Gb-|------------------------------------------------------------------|

Db-|-----0------------------------------------------------------------|

Ab-|---7--------------------------------------------------------------|

Eb-|-5-----5----------------------------------------------------------|

 

 

Structure - *1,*2,*1,*2,*1,*3,*1,*2,*1,*2,*1,*4,*5,*1,*2,*1,*2,*1,*4,*1,*2

 

Return to my to my Smashing Pumpkins tabs page

The Tablature is Copyright its respective owners.

Sign Up For My Newsletter
Subscribe | Unsubscribe

Site Map | Disclaimer | Privacy Policy | Media Kit | Submissions/Corrections

Website © 2000-2014 mattsmusicpage.com. All rights reserved.

Legal & DMCA: Matt's Music Page has been providing lyrics and tabs in a legal way, paying royalties each year to a few organizations. Then, all lyrics and tabs were removed from the site. Now, there's a new owner to the site, which purchased it August 26, 2014, and he is in negotiation to obtain licensing from BMI at the moment. If you have a specific DMCA request -- please do not hesitate to contact me via the contact button on top. I will do my very best to keep this site fully legal.

Get our toolbar!