Your One-Stop Source For
Music Lyrics
Bass and Guitar Tabs
and More...
>Music Lyrics Bass and Guitar Tabs

 

The Tabs Are Below

Learn To Read Tab
Chords Handbook
Corrections & Additions
Get Official Tab
Smashing Pumpkins tabs @ 911Tabs

Song: Spiteface

Release: demos

Artist: The Smashing Pumpkins

Author: Denny Hilton <ZERO@dcexhib.demon.co.uk>

Tuning: standard

 

-*-*-*-*-*-*-*-*-*-*-*-*-*-*-*-*-*-*-*-*-*-*-*-*-*-*-*-*-*-*-*-*-*-*-*-

 

hb = half bend

fb = full bend

fbr = fullbend release

h = hammer on

p = pull off

 

First Riff: (played several times)

G A

--------------------------------------------------------3----5-----------

--0-----------------2---3---2h3p2p0---------------------3----5-----------

--4---4---2h4p2p0---------------------------------------4----6-----------

--4-----------------------------------4---4---2h4p2p0---5----7-----------

--2-----------------------------------------------------3----7-----------

--------------------------------------------------------3----5-----------

 

Then:

 

-------------------------------------------------------------------------

--------------------4---5---4h5p4p0--------------------------------------

--6---6---4h6p4p2--------------------------------------------------------

--6-----------------------------------6---6---4h6p4p0----6---6---4h6p4p0-

--4----------------------------------------------------------------------

-------------------------------------------------------------------------

 

That's it for the main riff, expect the rest soon.

 

Return to my to my Smashing Pumpkins tabs page

The Tablature is Copyright its respective owners.

Sign Up For My Newsletter
Subscribe | Unsubscribe

Site Map | Disclaimer | Privacy Policy | Media Kit | Submissions/Corrections

Website © 2000-2014 mattsmusicpage.com. All rights reserved.

Legal & DMCA: Matt's Music Page has been providing lyrics and tabs in a legal way, paying royalties each year to a few organizations. Then, all lyrics and tabs were removed from the site. Now, there's a new owner to the site, which purchased it August 26, 2014, and he is in negotiation to obtain licensing from BMI at the moment. If you have a specific DMCA request -- please do not hesitate to contact me via the contact button on top. I will do my very best to keep this site fully legal.

Get our toolbar!

 

Disneyland Book and Record Mickey Mouse, Brave Little Tailor 7", 33 1/3 LP Vinyl
$5.99
Disneyland Book and Record Mickey Mouse, Brave Little Tailor 7


Disneyland Book and Record 101 Dalmatians, 1965, 7" Vinyl, 33 1/3 LP
$11.49
Disneyland Book and Record 101 Dalmatians, 1965, 7


45 RPM vinyl record spacer button
$2.5
45 RPM vinyl record spacer button picture


the world is a ghetto, war lp, vinyl album, record, collectible
$3.99
the world is a ghetto, war lp, vinyl album, record, collectible picture


Dogfish Head Record Store Day 2016 Craft Beer Pint Glass Album Vinyl NEW
$9.99
Dogfish Head Record Store Day 2016 Craft Beer Pint Glass Album Vinyl NEW picture