Your One-Stop Source For
Music Lyrics
Bass and Guitar Tabs
and More...
Music Lyrics Bass and Guitar Tabs

 

The Tabs Are Below

Learn To Read Tab
Chords Handbook
Corrections & Additions
Get Official Tab
Smashing Pumpkins tabs @ 911Tabs

Spaceboy

Smashing Pumpkins

 

 

Main riff:

|--repeat 3x----|

----------------|--------0---------0----------

--0-0--0-0-0-0--|--0-----0---------0----------

--0-0--0-0-0-0--|--0-----0---------0----------

--3/5--5-5/9-9--|--7--10-10--10-10-10--10-10--

--3/5--5-5/9-9--|--7--10-10--10-10-10--10-10--

--1/3--3-3/7-7--|--5--8--8---8--8--8---8--8---

 

play this main acoustic riff throughout most of the song, or play the chords

marked in the lyrics....

 

[riff]

Feel it break your bones mr. jones

Taste me as I bleed, taste my need

 

G Am(i) Em(i)

Spaceboy, I've missed you, spinning round my head

C(i) G D Em

Anyway you choose me, I break instead

 

[riff]

Watch me, death defy, defile my life

I don't need, if I don't care

 

---------------------------------------------------

--0--0---0--0--0---0--0--0--0---0--0--0---0--0--0--

--0--0---0--0--0---0--0--0--0---0--0--0---0--0--0--

--9--9---10-10-10--5--5--9--9---10-10-10--5--5--9--

--9--9---10-10-10--5--5--9--9---10-10-10--5--5--9--

--7--7---8--8--8---3--3--7--7---8--8--8---3--3--7--

Please I want to go home..I want to go home..

I want to go home, I want to go home

Cause when a lover aches, that's when a lover breaks

 

I want to go home, I want to go home...

 

Now just play the following riff twice for the instrumental:

 

-------------------------------------------------------------0--0--0--0--

--0--0-0--0--0-0---0--0-0--0--0-0---0--0-0--0--0-0---0--0-0--0--0--0--0--

--0--0-0--0--0-0---0--0-0--0--0-0---0--0-0--0--0-0---0--0-0--0--0--0--0--

--3--3-3--2--2-2---3--3-3--5--5-5---3--3-3--2--2-2---3--3-3--5--5--5--5--

--3--3-3--2--2-2---3--3-3--5--5-5---3--3-3--2--2-2---3--3-3--5--5--5--5--

--1--1-1--0--0-0---1--1-1--3--3-3---1--1-1--0--0-0---1--1-1--3--3--3--3--

 

C(i) G

Spaceboy, they'll kill me

Am(i) Em(i)

Before I'm dead and gone

C(i) G

And anyway they choose me,

D Em F(i)

It won't be long

C(i) G

And anyway they choose me,

D

We won't be long...

 

-----3-------3-------3--3--3-3--3--3--

-----0-------0-------0--0--0-0--0--0--

--0--0--0-0--0--0-0--0--0--0-0--0--0--

--3--3--3-3--3--3-3--0--0--0-0--0--0--

--3--3--3-3--3--3-3--2--2--2-2--2--0--

--1--1--1-1--1--1-1--3--3--3-3--3--2--

We won't be long...

repeat this until you end on the funny F chord

 

chords:

G 320003 or 320033

Am(i) x02213

Em(i) 022003

C(i) x32013

D xx0232

Em 022000

F(i) 133000

 

Return to my to my Smashing Pumpkins tabs page

The Tablature is Copyright its respective owners.

Sign Up For My Newsletter
Subscribe | Unsubscribe

Site Map | Disclaimer | Privacy Policy | Media Kit | Submissions/Corrections

Website © 2000-2014 mattsmusicpage.com. All rights reserved.

Legal & DMCA: Matt's Music Page has been providing lyrics and tabs in a legal way, paying royalties each year to a few organizations. Then, all lyrics and tabs were removed from the site. Now, there's a new owner to the site, which purchased it August 26, 2014, and he is in negotiation to obtain licensing from BMI at the moment. If you have a specific DMCA request -- please do not hesitate to contact me via the contact button on top. I will do my very best to keep this site fully legal.

Get our toolbar!