Your One-Stop Source For
Music Lyrics
Bass and Guitar Tabs
and More...
Music Lyrics Bass and Guitar Tabs

The Tabs Are Below

Learn To Read Tab
Chords Handbook
Corrections & Additions
Get Official Tab
Smashing Pumpkins tabs @ 911Tabs

Soma

Smashing Pumpkins

 

 

verse

B E G

-------------------------------------

-----0---------0---------12---12-----

-----8---------9----------0----0-----

-----9-9-----9-9---9---12-----12-----

---9---9---7-----7-7-10----10-10-10--

-7-------7---------0----------------- repeat, then strum chord pattern

 

after 2X, alternate high G w/ low G (355400)

during "chorus," end strum on F#/E (244300)

("Caught in a ruse of FOOLS..." line)

 

bridge

B E F#/E

"One last kiss for me and..."

B E G

"One last kiss good bye"

 

 

Heavy riff

A C5 G F

--------------------1-1-1--------------

-5-5----------------1-1-1--------------

-2-2-----5-5---0-0--2-2-2--------------

-2-2-----5-5---0-0--3-3-3--------------

-0-0-0-2-3-3-3-x-x--3-3-3--------------

---------------3-3--1-1-1-0-1p0--------

 

then back into the B E G progression

 

Return to my to my Smashing Pumpkins tabs page

The Tablature is Copyright its respective owners.

Get our toolbar!