Your One-Stop Source For
Music Lyrics
Bass and Guitar Tabs
and More...
Music Lyrics Bass and Guitar Tabs

 

The Tabs Are Below

Learn To Read Tab
Chords Handbook
Corrections & Additions
Get Official Tab
Smashing Pumpkins tabs @ 911Tabs

Bullet with butterfly wings by smashing pumpkins off Mellon collie and the infinite sadness.

 

Play this tell the Drums start All Gtrs. tune down half a step

 

VERSE

---------------------------------------------------------

--0-----------------------------------------0------------

--4-----------------------------------4-----4------------

--4--4--4--4--4--4--4--4--4--4--4--4--4--4--4--4--4------ play over and over

--2--2--0--2--2--2--2--2--2--2--2--2--0--0--0--0--0------

-----------------3--3--0--0--0--0--0---------------------

 

After the Drums start, change to this

 

1st pre-chorus

---------------------------------------------------------

--0-----------------------------------0--0--0--0--0------

--4-----------------------------------4--4--4--4--4------

--4--4--4--4--4--4--4--4--4--4--4--4--4--4--4--4--4------

--2--2--2--2--2--2--2--2--2--2--2--2--0--0--0--0--0------

-----------0--0--0--0--3--3--3--3--3---------------------

 

play this just before the 1st chorus " all my cool and cold like old job"

 

-----------------------------------------------------

--0-----------------------0--------------------------

--4-----------------------4--------------------------

--4--4--4--4--4--4--4--4--4--4--4--4--4--4--4--4--4--

--2--2--2--2--2--2--2--0--0--0--0--0--0--0--0--0--0--

-----------3--3--3--3--------------------------------

 

1st chorus w\distortion. " despite all my rage..." same riff at "Someone will say what is lost and never be saved".

 

----------------------------------------------------------------------------

----------3--3--2--2---------------------3----------------------------------

-4--4-----0--0--2--2--2--2-----...9------0--...play this-------------2------

-4--4--0--0--0--0--0-----------...9------0-----just before-----------2------

-2--2--0-------(0)(0)--------------------------2nd verse-------------0------

----------3--3--------------0-------(0)--3------------------2--0--2---------

 

2nd verse, same as first. except, after " and what do you want" change to this.

 

-------0------0---------0--------------------

-0--0-----0------0---------------------------

-14-------12-----11--------12...14-----------

------------------------------------12...14--

---------------------------------------------

---------------------------------------------

 

2nd pre-chorus. start the pre-chorus after " you feel the same "

 

-------------------------------------

-0-----------------------------------

-4--Play this 44x fast, then---------

-----------------------------4--4----

-----------------------------0--0----

-------------------------------------

 

2nd Chorus

 

-------------------------------------------

-----------3--3--3--3-------------------3--

--4--4-----0--0--2--2--2--2--...9-------0--

--4--4-----0--0--0--0--2--2--...9-------0--

--2--2--0--------------0--0--...7----------

-----------3--3--------------------(0)--3--

 

Interlude with vibrato

 

----------------------------------------------------------------------------

-12----------------------...12-----14--14...19-------...12------------...12-

-----------...13----------------fullbend----------------------...13---------

----------------------------------------------------------------------------

----------------------------------------------------------------------------

----------------------------------------------------------------------------

 

---------------------------------

-14----14--------14--------------

----1/2-bend--1 1/2 bend---------

---------------------------------

---------------------------------

-----------------------------x---

 

Bridge, starts at " tell me there's no other one "

 

----------------------------------------------------------------------------

----------------------------------------------------------------------------

-9-------------------------------------------------------------------3------

-7--------------------change to this at------------------------------4------

-7---5----4--------7--"jesus was a only sun"-2---5--4-----7-4-----7--4-16---

-0---3----2--0--0--5-------------------------0---3--2-0-0-5-2-0-0-5--2-times

 

3nd Chorus, slow with no distortion.

 

---------------------------------------------------------------------------

-------0-----------3-----------3-----------0-----------0--------0----------

-------4--0-----------0--2--2-----0-----------2--------------------0-------

----4-----------0--------0--------------2-----------2--------0-----------4-

-2-----------------------------------0-----------2--------------------2----

-------------3-----------------------------------0--------3----------------

 

----------------------------------------------------------------0--------0--

-0-----------3-----------3-----------0--------0--------0--------0--------3--

----0-----------0-----2-----0-----------------0--------0--0--------0--------

----------0--------0--------------2--------2--------0-----------------------

-------------------------------0-----------------------------2--------------

-------3--------------------------------0--------3--------------------3-----

 

----------0-----------0-----------0-----------0--------------------0--------

-------2--3-----------3-----------0-----------0--------0-----------0--------

-0-----------0-----2-----0-----2-----0--------------------0-----------0-----

----0-----------0--------------------------2--------0-----------4-----------

----------------------------0--------------------------------2--------------

----------------------------------------0--------3-----------------------3--

 

----0-----------0-----------0--------------------------

----3-----------3-----------0--------------------------

-------0-----2-----0-----------0--dist on--9-----0--0--

-0--------0--------------2-----------------7-----0--0--

----------------------0--------------------7-----------

----------------------------------------------0--3-----

 

4th Chorus

 

-------------------------------

----------3--3--3--3-----------

-4--4-----0--0--2--2--2--2-----

-4--4--0--0--0--0--0--2--2--3--

-2--2--0--------0--0--0--0--1--

----------3--------------------

 

end: play 4th chorus seven times tell the last time billy says " i still beleave that i cannot be saved. "

 

------------------------------------------------------------

----------3--3--3--3---------------------3------------------

-4--4-----0--0--2--2--2--------9...0-----0------------------

-4--4--0--0--0--0--0--2--------9...0-----0------------------

-2--2--0--------0--0--0--...8--7...0--------4--(4)...3...2--

----------3---------------------------3--3--2--(2)...1...0--

 

THATS IT, IT LOOKS LIKE A LOT BUT A LOT OF IT IS BASICLY THE SAME.

 

I HAVE UPLOADED A COUPLE OF OTHER THINGS FROM NIN AND BUSH. BUSH SUCKS BUT I KNOW THE GLYCERINE RIFF. IF THERE IS ANYTHING WRONG WITH THIS TAB PLEASE LET ME KNOW AND I WILL GLADLY CHANGE IT. MY ADDRESS IS BROKENNIN5@AOL.COM. THE BASS TAB WILL BE COMING LATER ALONG WITH MANY NIRVANA SONGS.

 

 

BY SETH ANDERSON

 

Return to my to my Smashing Pumpkins tabs page

The Tablature is Copyright its respective owners.

Sign Up For My Newsletter
Subscribe | Unsubscribe

Site Map | Disclaimer | Privacy Policy | Media Kit | Submissions/Corrections

Website © 2000-2014 mattsmusicpage.com. All rights reserved.

Legal & DMCA: Matt's Music Page has been providing lyrics and tabs in a legal way, paying royalties each year to a few organizations. Then, all lyrics and tabs were removed from the site. Now, there's a new owner to the site, which purchased it August 26, 2014, and he is in negotiation to obtain licensing from BMI at the moment. If you have a specific DMCA request -- please do not hesitate to contact me via the contact button on top. I will do my very best to keep this site fully legal.

Get our toolbar!