Your One-Stop Source For
Music Lyrics
Bass and Guitar Tabs
and More...
Music Lyrics Bass and Guitar Tabs

 

The Tabs Are Below

Learn To Read Tab
Chords Handbook
Corrections & Additions
Get Official Tab
Smashing Pumpkins tabs @ 911Tabs

Song: Set the Ray to Jerry

Release: 1979 single, TAFH

Artist: The Smashing Pumpkins

Author: Dragon #9 (draggie9@hotmail.com)

Tuning: Eb

 

-*-*-*-*-*-*-*-*-*-*-*-*-*-*-*-*-*-*-*-*-*-*-*-*-*-*-*-*-*-*-*-*-*-*-*-

 

 

Fig1 - Intro

----

 

4/4 , , , , , , , , , , , , , , , ,

| | |

E3|------------------------|------------------------|

B2|------------------------|------------------------|

G2|-8-----8-----8-----8----|-8-----8-----8-----8----|

D1|----9-----9-----9-----9-|----9-----9-----9-----9-|

A1|------------------------|------------------------|

E1|------------------------|------------------------|

| > _ > _ > _ > _ |(sim) |

 

Fig2 - Verse

----

 

2/4 , , , , , , , ,

| | |

E3|-----------------|-----------------|

B2|-----------------|-----------------|

G2|-8-------8-------|-8-------8-------|

D1|-----9-------9---|-----9-------9---|

A1|-----------------|-----------------|

E1|-----------------|-----------------|

| > _ > _ |(sim) |

 

2/4 , , , , , , , , , , , ,

| | |

E3|-----------------|-----------------|-----------------|

B2|-----------------|-----------------|-----------------|

G2|-8-------8-------|-8-------8-------|-9-------9-------|

D1|-----9-------9---|-----9-------9---|-----9-------9---|

A1|-----------------|-----------------|-----------------|

E1|-----------------|-----------------|-----------------|

| | | |

 

Fig3 - Chorus1

----

 

4/4 , , , , , , , , , , , , , , , ,

| | |

E3|---------------------------------|---------------------------------|

B2|-----7---------------7-----------|-----7---------------------------|

G2|---------8---------------8-------|---------8-----9---------9---8---|

D1|-9-------------9-----------------|-9-------------------9-----------|

A1|---------------------------------|---------------------------------|

E1|---------------------------------|---------------------------------|

| _ > _ > | _ > > _ > _ |

 

Fig4 - Chorus2

----

 

4/4 , , , , , , , , , , , , , , , ,

| | |

E3|-----14--------------14----------|-----14--------------------------|

B2|---------16--------------16------|---------16----17--------17--16--|

G2|-16------------16----------------|-16------------------16----------|

D1|---------------------------------|---------------------------------|

A1|---------------------------------|---------------------------------|

E1|---------------------------------|---------------------------------|

| _ > _ > | _ > > _ > _ |

 

 

Set the Ray to Jerry

--------------------

 

(Fig1)

 

(Fig2) - 3x

 

(Fig2)

Born to please

 

(Fig2)

Every simple need, I stand alone,

 

(Fig2)

And my thoughts indeed hate you

 

(Fig2)

For ever making me. I'm in you

 

(Fig2)

I'll be anything

 

(Fig3)

And I want you,

 

(Fig3)

And I need you,

 

(Fig3)

And all you are is brand new,

 

(Fig3 - don't play last three notes)

And I need you

 

(Fig2)

 

(Fig2)

Come to me

 

(Fig2)

Let me hold you still. I'm so tired,

 

(Fig2)

Just as tired as you. Take me

 

(Fig2)

For anyone but me. All that you feel

 

(Fig2 - skip last measure)

Is never true

 

(Fig3)

And I want you,

 

(Fig3)

And I need you,

 

(Fig3)

And all you are is brand new,

 

(Fig3)

And I need you

 

(Fig4)

When you say that you are

 

(Fig4)

Forever my star,

 

(Fig4)

I'll never let you go, no, no

 

(Fig4 - don't play last three notes)

I'll never let you know

 

Let roar these fears

 

(Bass - Fig2 optional)

To the whore of my tears, pure as a lie

 

(Bass - Fig2 optional)

Poured into your eyes. Suck you

 

(Bass - Fig2 optional)

Like the sap from a tree, honey from the dew

 

(Bass - Fig2 optional)

From the bumblebees. Yeah, yeah

 

(Fig3)

And I want you,

 

(Fig3)

And I need you,

 

(Fig3)

And all you are is brand new,

 

(Fig3)

And I need you

 

(Fig4)

When you say that you are

 

(Fig4)

Forever my star,

 

(Fig4)

I'll never let you go, no, no

 

(Fig4)

I'll never let you know

 

(Fig4)

And I want you,

 

(Fig4)

And I need you,

 

(Fig4)

And all you are is brand new,

 

(Fig4 - don't play last three notes)

And I need you

 

 

Return to my to my Smashing Pumpkins tabs page

The Tablature is Copyright its respective owners.

Sign Up For My Newsletter
Subscribe | Unsubscribe

Site Map | Disclaimer | Privacy Policy | Media Kit | Submissions/Corrections

Website © 2000-2014 mattsmusicpage.com. All rights reserved.

Get our toolbar!