Your One-Stop Source For
Music Lyrics
Bass and Guitar Tabs
and More...
Music Lyrics Bass and Guitar Tabs

 

The Tabs Are Below

Learn To Read Tab
Chords Handbook
Corrections & Additions
Get Official Tab
Smashing Pumpkins tabs @ 911Tabs

...Said Sadly

Smashing Pumpkins

 

 

Tuning: 1/2 step down

 

 

Intro: (let ring)

Gsus G

=============================v=v===v=^=v=v==v===

e:---------------------------3-3---3-3-3-3--3--|

B:---------------------------0-0---0-0-0-0--0--|

G:---------------------------0-0---0-0-0-0--0--|

D:--5-----4-----2-----0------0-0---0-0-0-0--0--|

A:-----5-----5-----5-----5---0-2---2-0-2-2--2--|

E:---------------------------3-3---3-3-3-3--3--|

 

2nd guitar slides this..

e:------------7-------------|

B:---------/8------8--------|

G:--------------------------|

D:--------------------------|

A:--------------------------|

E:--------------------------|

 

Verse

Em Am D Dsus

====v==v===^=v==v==v==============v=v=^=v=^=^=v=========

e:--0--0---0----0--0--------------2-2-2-2-3-3-2--2-----|

B:--0--0---0----1--1--------------3-3-3-3-3-3-3--3-----|

G:--0--0---0----2--2--------------2-2-2-2-2-2-2--2-----|

D:--2--2---2----2--2--------------0-0-0-0-0-0-0--0-----|

A:--2--2---2----0--0-----------------------------------|

E:--0--0---0-------------------------------------------|

You should know that I Love You

 

2nd guitar slides this..

e:--------------------------|

B:--------------------------|

G:--------------------------|

D:-------6/7----------------|

A:--------------------------|

E:--------------------------|

^^ Very slow slide

 

Em Am D Dsus

====v==v===^=v==v==v==============v=v=^=v=^=^=v=========

e:--0--0---0----0--0--------------2-2-2-2-3-3-2--2-----|

B:--0--0---0----1--1--------------3-3-3-3-3-3-3--3-----|

G:--0--0---0----2--2--------------2-2-2-2-2-2-2--2-----|

D:--2--2---2----2--2--------------0-0-0-0-0-0-0--0-----|

A:--2--2---2----0--0-----------------------------------|

E:--0--0---0-------------------------------------------|

We should Love like Lovers do

 

2nd guitar slides this..

e:--------------------------|

B:--------------------------|

G:------7/9-----------------|

D:--------------------------|

A:--------------------------|

E:--------------------------|

^^ Slow, once again...

 

Em Am D Dsus

====v==v===^=v==v==v==============v=v=^=v=^=^=v=========

e:--0--0---0----0--0--------------2-2-2-2-3-3-2--2-----|

B:--0--0---0----1--1--------------3-3-3-3-3-3-3--3-----|

G:--0--0---0----2--2--------------2-2-2-2-2-2-2--2-----|

D:--2--2---2----2--2--------------0-0-0-0-0-0-0--0-----|

A:--2--2---2----0--0-----------------------------------|

E:--0--0---0-------------------------------------------|

We should Love like Lovers do

 

2nd guitar slides this..

e:--------------------------|

B:-------8\7----------------|

G:--------------------------|

D:--------------------------|

A:--------------------------|

E:--------------------------|

 

Em Am D Dsus C

====v==v===^=v==v==v==============v=v=^=v=^=^=v==============================

e:--0--0---0----0--0--------------2-2-2-2-3-3-2--2---------------0----------|

B:--0--0---0----1--1--------------3-3-3-3-3-3-3--3---------------1----------|

G:--0--0---0----2--2--------------2-2-2-2-2-2-2--2---------------0----------|

D:--2--2---2----2--2--------------0-0-0-0-0-0-0--0---------------2----------|

A:--2--2---2----0--0---------------------------------------------3----------|

E:--0--0---0----------------------------------------------------------------|

And I can't help but fall for you... Oh, honey I'm just a fool

..now you know

 

2nd guitar slides this..

e:--------------------------|

B:--------------------------|

G:------7/9-----------------|

D:--------------------------|

A:--------------------------|

E:--------------------------|

 

Enter Nina..

Em Am D Dsus

====v==v===^=v==v==v==============v=v=^=v=^=^=v=========

e:--0--0---0----0--0--------------2-2-2-2-3-3-2--2-----|

B:--0--0---0----1--1--------------3-3-3-3-3-3-3--3-----|

G:--0--0---0----2--2--------------2-2-2-2-2-2-2--2-----|

D:--2--2---2----2--2--------------0-0-0-0-0-0-0--0-----|

A:--2--2---2----0--0-----------------------------------|

E:--0--0---0-------------------------------------------|

Darling, I'll nev-er be true

 

2nd guitar slides this..

e:--------------------------|

B:--------7-----------------|

G:-----------7--------------|

D:--------------7-----------|

A:--------------------------|

E:--------------------------|

 

Em Am D Dsus

====v==v===^=v==v==v==============v=v=^=v=^=^=v=========

e:--0--0---0----0--0--------------2-2-2-2-3-3-2--2-----|

B:--0--0---0----1--1--------------3-3-3-3-3-3-3--3-----|

G:--0--0---0----2--2--------------2-2-2-2-2-2-2--2-----|

D:--2--2---2----2--2--------------0-0-0-0-0-0-0--0-----|

A:--2--2---2----0--0-----------------------------------|

E:--0--0---0-------------------------------------------|

See for so long I was blue... (I'm not the only one)

 

2nd guitar slides this..

e:--------------------------|

B:--------------------8-----|

G:--7/9-------------7-------|

D:--------------------------|

A:--------------------------|

E:--------------------------|

 

Em Am D Dsus C

====v==v===^=v==v==v==============v=v=^=v=^=^=v==============================

e:--0--0---0----0--0--------------2-2-2-2-3-3-2--2---------------0----------|

B:--0--0---0----1--1--------------3-3-3-3-3-3-3--3---------------1----------|

G:--0--0---0----2--2--------------2-2-2-2-2-2-2--2---------------0----------|

D:--2--2---2----2--2--------------0-0-0-0-0-0-0--0---------------2----------|

A:--2--2---2----0--0---------------------------------------------3----------|

E:--0--0---0----------------------------------------------------------------|

And if I hurt then you will, too Oh honey I always lose

Now you know

 

 

G Bm D C

====v==v===^=v==v==v============v=v=^=v=v=================

e:--3--3---3----2--2------------2-2-2-2-2--2---0----------|

B:--0--0---0----3--3------------3-3-3-3-3--3---1----------|

G:--0--0---0----4--4------------2-2-2-2-2--2---0----------|

D:--0--0---0----4--4------------0-0-0-0-0--0---2----------|

A:--2--2---2----2--2---------------------------3----------|

E:--3--3---3----------------------------------------------|

Lover, when will you? I'm so afraid that noone cares

 

G Bm D C

====v==v===^=v==v==v============v=v=^=v=v=================

e:--3--3---3----2--2------------2-2-2-2-2--2---0----------|

B:--0--0---0----3--3------------3-3-3-3-3--3---1----------|

G:--0--0---0----4--4------------2-2-2-2-2--2---0----------|

D:--0--0---0----4--4------------0-0-0-0-0--0---2----------|

A:--2--2---2----2--2---------------------------3----------|

E:--3--3---3----------------------------------------------|

Lover, can't find you here. I swear to God don't leave me here.

Now you know

 

2nd guitar slides this..

e:----8p7------------10p8\7h8p7-------|

B:--------8---------------------------|

G:----------7-------------------------|

D:------------------------------------|

A:------------------------------------|

E:------------------------------------|

 

Chords played... Am D G

 

Em Am D Dsus

====v==v===^=v==v==v==============v=v=^=v=^=^=v=========

e:--0--0---0----0--0--------------2-2-2-2-3-3-2--2-----|

B:--0--0---0----1--1--------------3-3-3-3-3-3-3--3-----|

G:--0--0---0----2--2--------------2-2-2-2-2-2-2--2-----|

D:--2--2---2----2--2--------------0-0-0-0-0-0-0--0-----|

A:--2--2---2----0--0-----------------------------------|

E:--0--0---0-------------------------------------------|

Oh you know that it can't be

 

2nd guitar slides this.. (not in time)

e:----8p7---------10p8\7h8p7---------------|

B:--------8--------------------------------|

G:----------7------------------/11-/9-/7---|

D:-----------------------------------------|

A:-----------------------------------------|

E:-----------------------------------------|

 

Em Am D Dsus

====v==v===^=v==v==v==============v=v=^=v=^=^=v=========

e:--0--0---0----0--0--------------2-2-2-2-3-3-2--2-----|

B:--0--0---0----1--1--------------3-3-3-3-3-3-3--3-----|

G:--0--0---0----2--2--------------2-2-2-2-2-2-2--2-----|

D:--2--2---2----2--2--------------0-0-0-0-0-0-0--0-----|

A:--2--2---2----0--0-----------------------------------|

E:--0--0---0-------------------------------------------|

But no one else here really means... (can't understand James)

 

I'll stop tabbing the slide, thank you. I can't hear it too well, and if

anyone else wants to do it, Great!

 

Am Bm D

===v==v===============v=v=^=v=^=^==========

e:-0--0-----------2-----------------2------|

B:-1--1-----------3-----------------3------|

G:-2--2-----------4-----------------2------|

D:-2--2-----------4-----------------0------|

A:-0--0-----------2------------------------|

E:-----------------------------------------|

If you heard inside if you could fly....

 

G Bm C

====v==v===^=v==v==v======v^v^v====

e:--3--3---3----2--2-----0-----3--|

B:--0--0---0----3--3-----1-----1--|

G:--0--0---0----4--4-----0-----0--|

D:--0--0---0----4--4-----2-----2--|

A:--2--2---2----2--2-----3-----3--|

E:--3--3---3----------------------|

 

G Bm D C

====v==v===^=v==v==v=========================v^v^v====

e:--3--3---3----2--2----------2--------------0-----3--|

B:--0--0---0----3--3----------3--------------1-----1--|

G:--0--0---0----4--4----------2--------------0-----0--|

D:--0--0---0----4--4----------0--------------2-----2--|

A:--2--2---2----2--2-------------------------3-----3--|

E:--3--3---3------------------------------------------|

Lover, when will you? I'm so afraid that no one cares...

 

G Bm D C

====v==v===^=v==v==v=========================v^v^v====

e:--3--3---3----2--2----------2--------------0-----3--|

B:--0--0---0----3--3----------3--------------1-----1--|

G:--0--0---0----4--4----------2--------------0-----0--|

D:--0--0---0----4--4----------0--------------2-----2--|

A:--2--2---2----2--2-------------------------3-----3--|

E:--3--3---3------------------------------------------|

Lover, can't find you, and noone knows what brings us here.

 

A few measures of G chords end the song...

 

Return to my to my Smashing Pumpkins tabs page

The Tablature is Copyright its respective owners.

Sign Up For My Newsletter
Subscribe | Unsubscribe

Site Map | Disclaimer | Privacy Policy | Media Kit | Submissions/Corrections

Website © 2000-2014 mattsmusicpage.com. All rights reserved.

Legal & DMCA: Matt's Music Page has been providing lyrics and tabs in a legal way, paying royalties each year to a few organizations. Then, all lyrics and tabs were removed from the site. Now, there's a new owner to the site, which purchased it August 26, 2014, and he is in negotiation to obtain licensing from BMI at the moment. If you have a specific DMCA request -- please do not hesitate to contact me via the contact button on top. I will do my very best to keep this site fully legal.

Get our toolbar!

 

VINTAGE SORRENTO MUSIC JEWELRY BOX
$45.0
VINTAGE SORRENTO MUSIC JEWELRY BOX picture


VINTAGE LACQUERED MUSIC BOX JAPAN
$25.99
VINTAGE LACQUERED MUSIC BOX JAPAN picture


Vintage Kehlsteinhaus Bavaria Germany Colorscope Cow Bell View Master Music Box
$8.99
Vintage Kehlsteinhaus Bavaria Germany Colorscope Cow Bell View Master Music Box picture


VINTAGE SCHMIDT Signed Collectible Musical Turning Clown
$9.99
VINTAGE  SCHMIDT Signed Collectible Musical Turning Clown picture


Vintage - Linen - Postcard - Stage - Radio City Music Hall - New York City
$3.75
Vintage - Linen - Postcard - Stage - Radio City Music Hall - New York City   picture