Your One-Stop Source For
Music Lyrics
Bass and Guitar Tabs
and More...
Music Lyrics Bass and Guitar Tabs

 

The Tabs Are Below

Learn To Read Tab
Chords Handbook
Corrections & Additions
Get Official Tab
Smashing Pumpkins tabs @ 911Tabs

Song: Sad Peter Pan

Release: Sweet Relief II

Artist: The Smashing Pumpkins

Author: Mark Williams <zeroweb@geocities.com>

Tuning: F (F A# D# G# C F)

Notes: Vic Chesnutt cover w/ Red Red Meat

 

-*-*-*-*-*-*-*-*-*-*-*-*-*-*-*-*-*-*-*-*-*-*-*-*-*-*-*-*-*-*-*-*-*-*-*-

 

the song is tabbed out as if you are tuned in F.

 

this is the general structure of the song, i tabbed out the first

couple minutes. there is actually more than one guitar here, in fact

there are many guitars layered in making the song have that thick

dreamy sound. the guitars are acoustic with distortion and there is

hint of an electric in the background playing a couple notes.

 

 

|------------------------|------------0----------|---------------------|

|----------4---4b5b4--0--|------0~--------0------|----4-----2---0------|

|------------------------|------2~------------1--|---------------------|

|------2-----------------|------2~---------------|-----------------2---|

|------------------------|-0---------------------|-----------------2---|

|--0---------------------|-----------------------|0-----0----------0-0-|

 

|-----------------|---------------|----------------|-------------------|

|----0------------|----4b5b4--0-0-|--0-0-0-0-0-0-0-|----4---4b5b4--0-0-|

|----2------------|-------------1-|--2-2-2-2-2-2-2-|-----------------1-|

|----2---1b2b1--2-|---------------|--2-2-2-2-2-2-2-|-------------------|

|-0---------------|---------------|--0-0-0-0-0-0-0-|-------------------|

|-----------------|-0-------------|----------------|-0----0------------|

 

voice enters here I think . . .

|----------------|----0----------|----0--0-0--|--0---------------0-----|

|------------0---|----0----------|----0--0-0--|--0--4b5b4----4---0-----|

|------------2---|----1----------|-2--2--2-2--|--1---------------1-----|

|-2~~~-------2---|-2--2----------|-2--2--2----|--2---------------2-----|

|-0~~~-------0---|-2--2----------|-0--0-------|--2---------------2-----|

|----------------|-0--0--------0-|------------|--0---------------0-----|

0

 

|------0------------|-------------------|--0-----------|------0--------|

|------0--0-----0-0-|-----4b5b4--p0-2-0-|--0-----------|------0--------|

|------2--2-----2-2-|-------------------|--2-----------|------1--------|

|---2--2--2--2--2---|-------------------|--2-----------|------2--------|

|-0-0--0-----0--0---|--2----------------|--0--0-4b5b4--|------2--------|

|-------------------|--0----------------|--------------|--0---0--------|

 

 

 

chorus here . . .

|--------------|--------------------|-----------------|----------------|

|--0-----------|--------------------|----------4--4-x-|----------------|

|--2-----------|--------0----0--0-x-|-------4--4--4-x-|------0--0--0-x-|

|--2-----------|--------4----4--4-x-|-----4-----------|------4--4--4-x-|

|--0--------2--|-----4-------4------|--2--------------|----4----4------|

|-----------0--|--2-----------------|-----------------|-2--------------|

 

 

the strumming here is random, get your own rhythm. . .

|----------------------------|-----------------------------------------|

|--------4--4-----0----------|------5--5-------------------------------|

|-----4--4--4--4--2--2--2--2-|--6---6--6--6--6------4~~~---------------|

|-----4--4--4--4--2--2--2--2-|--6---6--6--6--6------4~~~---------------|

|--2--2--2--2--2--0--0--0--0-|--4---4--4--4--4--0---2~~~---------------|

|----------------------------|-----------------------------------------|

 

 

and so the song continues in a similar fashion. there are a lot of

layered guitars playing random notes in the chords and guitars strumming

the chords in the background. There are a couple of other notes here

and there, but the song follows this general pattern. . .

 

Return to my to my Smashing Pumpkins tabs page

The Tablature is Copyright its respective owners.

Sign Up For My Newsletter
Subscribe | Unsubscribe

Site Map | Disclaimer | Privacy Policy | Media Kit | Submissions/Corrections

Website © 2000-2014 mattsmusicpage.com. All rights reserved.

Legal & DMCA: Matt's Music Page has been providing lyrics and tabs in a legal way, paying royalties each year to a few organizations. Then, all lyrics and tabs were removed from the site. Now, there's a new owner to the site, which purchased it August 26, 2014, and he is in negotiation to obtain licensing from BMI at the moment. If you have a specific DMCA request -- please do not hesitate to contact me via the contact button on top. I will do my very best to keep this site fully legal.

Get our toolbar!