Your One-Stop Source For
Music Lyrics
Bass and Guitar Tabs
and More...
Music Lyrics Bass and Guitar Tabs

 

The Tabs Are Below

Learn To Read Tab
Chords Handbook
Corrections & Additions
Get Official Tab
Smashing Pumpkins tabs @ 911Tabs

Smashing Pumpkins

Rocket

 

E :------------------5---- 3|3-3-3-----------3------ 2|

B :----3---5-3---3-------3 ||3-3-3---5-3-3-3-3---3-3 ||

G :--0---0-----0---0---0--*||0-0-0-0-5-0-0-0-0---0-0*||

D :5----------------------*||------0-------0---0----*||

A :----------------------- ||----------------------- ||

E :----------------------- ||----------------------- ||

 

E :3-3-3------------------|3-3-3-----------3------ 2|

B :3-3-3---5-3-3-5-3-3-3-3|3-3-3---5-3-3-3-3---3-3 ||

G :0-0-0-0-5-0-0-5-0-0-0-0|0-0-0-0-5-0-0-0-0---0-0*||

D :------0---------------0|------0-------0---0----*||

A :-----------------------|----------------------- ||

E :-----------------------|----------------------- ||

 

E :3-3-3-------------------| 3-3-3-----------3------ 1|

B :3-3-3---5-3-3-5-3-3-3-3-| 3-3-3---5-3-3-3-3---3-3 ||

G :0-0-0-0-5-0-0-5-0-0-0-0-|*0-0-0-0-5-0-0-0-0---0-0*||

D :------0---------------0-|*------0-------0---0----*||

A :------------------------| ----------------------- ||

E :------------------------| ----------------------- ||

 

E :3-3-3-3-3-3-3-3---3-3---|-------------------------|

B :3-3-3-3-3-3-3-1---1-1---|------1-1-1--------------|

G :0-0-0-0-0-0-0-0---2-2-0-|0-0-0-0-0-0-0-0-0-0-0-0-0|

D :--------------3---3-3-2-|2-2-2-2-2-2-2-2-2-2-2-2-0|

A :--------------0-------3-|3-3-3-3-3-3-3-3-3-3-3-3--|

E :------------------------|-------------------------|

 

E :| ----3-3-----------------|---------------------------- 3|

B :| ----3-3-3-------10----10|------13----13-------------- ||

G :|*--0-----0----11---------|---14-------------9-10-8--9-*||

D :|*5---------12-------12---|15-------15----10--------10-*||

A :| ------------------------|---------------------------- ||

E :| ------------------------|---------------------------- ||

 

E :| ------------------------------|--------------------------------- 1|

B :| ------------------------------|--------------------10-12-13-12-- ||

G :|*10-12--10-12--10-12-14-12-----|10-12--10-12--10-12--------------*||

D :|*--------------------------9---|---------------------7--9-10--9--*||

A :| -8-10---8-10---8-10-12-10-----|-8-10---8-10---8-10-------------- ||

E :| --------------------------7---|--------------------------------- ||

 

E :| ---------------------------|----------------------------------- 1|

B :| --8-12-12---------13-12-12-|--8-12-12--15-15-12---13-12---13-12 ||

G :|*0-----------0-0-0----------|0-------------------0-------0------*||

D :|*---------------------------|-----------------------------------*||

A :| ---------------------------|----------------------------------- ||

E :| ---------------------------|----------------------------------- ||

 

Return to my to my Smashing Pumpkins tabs page

The Tablature is Copyright its respective owners.

Sign Up For My Newsletter
Subscribe | Unsubscribe

Site Map | Disclaimer | Privacy Policy | Media Kit | Submissions/Corrections

Website © 2000-2014 mattsmusicpage.com. All rights reserved.

Legal & DMCA: Matt's Music Page has been providing lyrics and tabs in a legal way, paying royalties each year to a few organizations. Then, all lyrics and tabs were removed from the site. Now, there's a new owner to the site, which purchased it August 26, 2014, and he is in negotiation to obtain licensing from BMI at the moment. If you have a specific DMCA request -- please do not hesitate to contact me via the contact button on top. I will do my very best to keep this site fully legal.

Get our toolbar!