Your One-Stop Source For
Music Lyrics
Bass and Guitar Tabs
and More...
Music Lyrics Bass and Guitar Tabs

 

The Tabs Are Below

Learn To Read Tab
Chords Handbook
Corrections & Additions
Get Official Tab
Smashing Pumpkins tabs @ 911Tabs

Song: Razor

Release: ?

Artist: The Smashing Pumpkins

Author: Josh Allard <RSZR78B@prodigy.com>

Tuning: standard

 

-*-*-*-*-*-*-*-*-*-*-*-*-*-*-*-*-*-*-*-*-*-*-*-*-*-*-*-*-*-*-*-*-*-*-*-

 

 

This is what I could figure out from the boot SHINE which is one of my

favorites. It isn't the best quaility, but I love the way his voice

sounds. If anyone has any other Gish era boots please trade with me!!

 

A

e---------------------------------

B---------------------------------

G---------------------------------

D-4-4-4-4-7-7-7-7-9-9-9-9-9-9-9-9- x12

A-4-4-4-4-7-7-7-7-9-9-9-9-9-9-9-9-

E-2-2-2-2-5-5-5-5-7-7-7-7-7-7-7-7-

pm------------------------------/

 

B all harmonics

e--5-5-5-5-5-9-9-9-9-9-7-7-7-7-

B--5-5-5-5-5-9-9-9-9-9-7-7-7-7-

G--5-5-5-5-5-9-9-9-9-9-7-7-7-7-

D--5-5-5-5-5-9-9-9-9-9-7-7-7-7- x2

A--5-5-5-5-5-9-9-9-9-9-7-7-7-7-

E--5-5-5-5-5-9-9-9-9-9-7-7-7-7-

 

Play A together with some from of B 8 times then:

 

C

e-----------------------------------------

B-----------------------------------------

G-----------------------------------------

D-6-6-6-6-9-9-9-9-13-13-13-13-13-13-13-13- x4

A-6-6-6-6-9-9-9-9-13-13-13-13-13-13-13-13-

E-4-4-4-4-7-7-7-7-11-11-11-11-11-11-11-11-

pm--------------------------------------/

 

Play A together with some from of B 4 times then:

 

D

e-------------------

B-------------------

G-------------------

D-4-4-7-7-9-9-9b~~r- x14

A-4-4-7-7-9-9-9b~~r-

E-2-2-5-5-7-7-7b~~r-

 

E

e----------------------

B----------------------

G----------------------

D-6-6-9-9-11-11-11b~~r- x4

A-6-6-9-9-11-11-11b~~r-

E-4-4-7-7--9--9--9b~~r-

 

D1

e------------------------------------

B------------------------------------

G------------------------------------

D-4-4-7-7-9-9-9b~~r-4-4-7-7-9-10-9-7- x4

A-4-4-7-7-9-9-9b~~r-4-4-7-7-9-10-9-7-

E-2-2-5-5-7-7-7b~~r-2-2-5-5-7--8-7-5-

 

F

e-------------------

B-------------------

G-------------------

D-9-9--9-9--2-------

A-9-9--9-9--2---x\--

E-7-7--7-7--0---x\--

 

-solo-

 

D1.5

e-------------------------------

B-------------------------------

G-------------------------------

D-4-4-7-7-9-10-9-7-------------- x14

A-4-4-7-7-9-10-9-7--------------

E-2-2-5-5-7--8-7-5--------------

 

Then play:

 

Ex4

D1x4

Fx1 with no pick scrape

 

then end with this:

e--------

B--------

G--------

D-9\-----

A-9\-----

E-7\-----

 

I tried the lyrics, but I really don't think I can figure

'em all out. Sorry!

 

Return to my to my Smashing Pumpkins tabs page

The Tablature is Copyright its respective owners.

Sign Up For My Newsletter
Subscribe | Unsubscribe

Site Map | Disclaimer | Privacy Policy | Media Kit | Submissions/Corrections

Website © 2000-2014 mattsmusicpage.com. All rights reserved.

Legal & DMCA: Matt's Music Page has been providing lyrics and tabs in a legal way, paying royalties each year to a few organizations. Then, all lyrics and tabs were removed from the site. Now, there's a new owner to the site, which purchased it August 26, 2014, and he is in negotiation to obtain licensing from BMI at the moment. If you have a specific DMCA request -- please do not hesitate to contact me via the contact button on top. I will do my very best to keep this site fully legal.

Get our toolbar!

 

Starbucks You Are Here Coffee Mug/Cup KENTUCKY - Horses, Banjo, Blue, White
$19.99
Starbucks You Are Here Coffee Mug/Cup KENTUCKY - Horses, Banjo, Blue, White picture


KNOWLES ROCKWELL HERITAGE "THE BANJO PLAYER" FIRST EDITION 1989 PLATE COA
$5.99
KNOWLES ROCKWELL HERITAGE


Vintage Postcard 1981 Disney World Banjo Kings Main Street USA 1981 Postmark
$4.99
 Vintage Postcard 1981 Disney World Banjo Kings Main Street USA 1981 Postmark picture


Banjo Barometer With Thermometer Hygrometer 490mm
$84.76
Banjo Barometer With Thermometer Hygrometer 490mm picture


ANTIQUE JAPANESE NIPPON FIGURINE SET OF 3 WOMEN GEISHA PLAYING DRUM BANJO FAN
$24.0
ANTIQUE JAPANESE NIPPON FIGURINE SET OF 3 WOMEN GEISHA PLAYING DRUM BANJO FAN picture