Your One-Stop Source For
Music Lyrics
Bass and Guitar Tabs
and More...
Music Lyrics Bass and Guitar Tabs

 

The Tabs Are Below

Learn To Read Tab
Chords Handbook
Corrections & Additions
Get Official Tab
Smashing Pumpkins tabs @ 911Tabs

Purr Snickety

Smashing Pumpkins

 

 

 

G (stm down)

1 . . + . . 2 . . + . . 3 . . + . . 4 . . + . . 1 (etc.) 4 . . + . .

 

E--3-----3-----3---------3-------3-----------3----|---...----------------|

B--3-----3-----3---------3-------3-----------3----|---...--------3-----0-|

G--0-----------0---------0-------0-----------0----|---...----------------|

D--0-----------0---------0-------0---------0-0h2p0|---...----------------|

A--2-----------2---------2-------2-----0h2--------|---...----2-----3-----|

E--3-----3---3-------3-----3---------3------------|3--...----------------|

 

 

D2 CM7 C2 G

1 . . + . . 2 . . + . . 3 . . + . . 4 . . + . . 1 (etc.) 4 . . + . .

 

E--------------0----------------------------------|---...----------------|

B--------3---------3-----0-----------------3-----0|---...--------3-----0-|

G------2-----2-------2-----------0----------------|---...----------------|

D--0---------------------------2-----2------------|---...----------------|

A--------------------------3-----------3-----3----|---...----2-----0-----|

E-------------------------------------------------|3--...----------------|

All your feelings are the same

 

 

F a G

1 . . + . . 2 . . + . . 3 . . + . . 4 . . + . . 1 (etc.) 4 . . + . .

 

E-------------------------------------------------|---...----------------|

B--1-----0-----------------1-----0-----------0----|---...--------3-----0-|

G------------2-------0---------------2-----------0|---...----------------|

D-------------------------------------------------|---...----------------|

A--------------------------0---------0-----0------|---...----2-----3-----|

E--1---------1-----1-----0------------------------|3--...----------------|

Turn a - round, look a - round, you'll see

 

 

D2 CM7 C2 G

1 . . + . . 2 . . + . . 3 . . + . . 4 . . + . . 1 (etc.) 4 . . + . .

 

E--------------0----------------------------------|---...----------------|

B--------3---------3-----0-----------------3-----0|---...--------3-----0-|

G------2-----2-------2-----------0----------------|---...----------------|

D--0---------------------------2-----2------------|---...----------------|

A--------------------------3-----------3-----3----|---...----2-----0-----|

E-------------------------------------------------|3--...----------------|

and all your troubles still remain

 

 

 

F a G (strum)

1 . . + . . 2 . . + . . 3 . . + . . 4 . . + . . 1 (etc.) 4 . . + . .

 

E-------------------------------------------------|---...----3---3-3---0-|

B--1-----0-----------------1-----0-----------0----|---...----3---3-3---0-|

G------------2-------0---------------2-----------0|---...----0---0-0---0-|

D-------------------------------------------------|---...----0---0-0-----|

A--------------------------0---------0-----0------|---...----2---2-2-----|

E--1---------1-----1-----0------------------------|3--...----3---3-3-----|

Set 'em down, take what you long to me.

 

a a7 C C2

1 . . + . . 2 . . + . . 3 . . + . . 4 . . + . .

 

E--0-----0---0-3-----3-----0-----0---0-0-----0----|

B--1-----1---1-1-----1-----1-----1---1-3-----3----|

G--2-----2---2-2-----2---2-0-----0---0-0-----0----|

D--2-----2---2-2-----2---2-2-----2---2-0-----0----|

A--0-----0---0-0-----0---0-3-----3---3-3-----3----|

E-------------------------------------------------|

I'm your pillar of stone

 

G D

1 . . + . . 2 . . + . . 3 . . + . . 4 . . + . .

 

E--3---------2------------------------------------|

B--3---------3------------------------------------|

G--0---------2------------------------------------|

D--0---------0------------------------------------|

A--2----------------------------------------------|

E--3----------------------------------------------|

so when the wind cause you to roam

 

 

a a7 C

1 . . + . . 2 . . + . . 3 . . + . . 4 . . + . .

 

E--0-----0---0-3-----3---3-0---------3-------3---3-|

B--1-----1---1-1-----1---1-1---------1-------1---1-|

G--2-----2---2-2-----2---2-0---------0-------0---0-|

D--2-----2---2-2-----2---2-2---------2-------2---2-|

A--0-----0---0-0-----0---2-3---------3-------3---3-|

E--------------------------------------------------|

you can call this house your home

 

G F

1 . . + . . 2 . . + . . 3 . . + . . 4 . . + . .

 

E--3-----3---3-3-----3---3-1-----1---1-1-----1---1|

B--3-----3---3-3-----3---3-1-----1---1-1-----1---1|

G--0-----0---0-0-----0---0-2-----2---2-2-----2---2|

D--0-----0---0-0-----0---0-3-----3---3-3-----3---3|

A--2-----2---2-2-----2---2-3-----3---3-3-----3---3|

E--3-----3---3-3-----3---3-1-----1---1-1-----1---1|

only you

 

C D D/F#

1 . . + . . 2 . . + . . 3 . . + . . 4 . . + . .

 

E--0-----0---0-0-----0---0-2-----2---2-2---2-2----|

B--1-----1---1-1-----1---1-3-----3---3-3---3-3----|

G--0-----0---0-0-----0---0-2-----2---2-2---2-2----|

D--2-----2---2-2-----2---2-0-----0---0-4---4-4----|

A--3-----3---3-3-----3---3------------------------|

E-------------------------------------------------|

 

D

1 . . + . . 2 . . + . .

 

E--2-----5-5-5-5-5-5-5-5-5|

B--3-----3-3-3-3-3-3-3-3-3|

G--2-----2-2-2-2-2-2-2-2-2|

D--0-----0-0-0-0-0-0-0-0-0|

A-------------------------|

E-------------------------|

 

 

D CM7 C2 G

1 . . + . . 2 . . + . . 3 . . + . . 4 . . + . . 1 (etc.) 4 . . + . .

 

E--2-----------0----------------------------------|---...----------------|

B--3-----3---------3-----0-----------------3-----0|---...--------3-----0-|

G--2-----2---2-------2-----------0----------------|---...----------------|

D--0-----0---------------------2-----2------------|---...----------------|

A--------------------------3-----------3-----3----|---...----2-----0-----|

E-------------------------------------------------|3--...----------------|

I've got reasons all my own but

 

F a G

1 . . + . . 2 . . + . . 3 . . + . . 4 . . + . . 1 (etc.) 4 . . + . .

 

E-------------------------------------------------|---...----------------|

B--1-----0-----------------1-----0-----------0----|---...--------3-----0-|

G------------2-------0---------------2-----------0|---...----------------|

D-------------------------------------------------|---...----------------|

A--------------------------0---------0-----0------|---...----2-----3-----|

E--1---------1-----1-----0------------------------|3--...----------------|

you might say I'm nothing way along

 

 

D2 CM7 C2 G

1 . . + . . 2 . . + . . 3 . . + . . 4 . . + . . 1 (etc.) 4 . . + . .

 

E--------------0----------------------------------|---...----------------|

B--------3---------3-----0-----------------3-----0|---...--------3-----0-|

G------2-----2-------2-----------0----------------|---...----------------|

D--0---------------------------2-----2------------|---...----------------|

A--------------------------3-----------3-----3----|---...----2-----0-----|

E-------------------------------------------------|3--...----------------|

All your love won't change a

 

 

F a G

1 . . + . . 2 . . + . . 3 . . + . . 4 . . + . . 1 (etc.) 4 . . + . .

 

E-------------------------------------------------|---...----------------|

B--1-----0-----------------1-----0-----------0----|---...--------3-----0-|

G------------2-------0---------------2-----------0|---...----------------|

D-------------------------------------------------|---...----------------|

A--------------------------0---------0-----0------|---...----2-----3-----|

E--1---------1-----1-----0------------------------|3--...----------------|

million miles, and a thousand smiles away

 

 

D2 CM7 C2 G

1 . . + . . 2 . . + . . 3 . . + . . 4 . . + . . 1 (etc.) 4 . . + . .

 

E--------------0----------------------------------|---...----------------|

B--------3---------3-----0-----------------3-----0|---...--------3-----0-|

G------2-----2-------2-----------0----------------|---...----------------|

D--0---------------------------2-----2------------|---...----------------|

A--------------------------3-----------3-----3----|---...----2-----0-----|

E-------------------------------------------------|3--...----------------|

All your love won't change a

 

 

F a

1 . . + . . 2 . . + . . 3 . . + . . 4 . . + . .

 

E-------------------------------------------------|

B--1-----0-----------------1-----0-----------0----|

G------------2-------0---------------2-----------0|

D-------------------------------------------------|

A--------------------------0---------0-----0------|

E--1---------1-----1-----0------------------------|

million miles, and a thousand smiles away

 

 

G

1 . . + . . 2 . . + . . 3 . . + . . 4 . . + . .

 

E--------------3---------3-------3-----------3----|

B--------------3---------3-------3-----------3----|

G--------------0---------0-------0-----------0----|

D--------------0---------0-------0---------0-0h2p0|

A--------------2---------2-------2-----0h2--------|

E--3---------3-------3-----3---------3------------|

 

 

G (rit.) G

1 . . + . . 2 . . + . . 3 . . + . . 4 . . + . . 1

 

E--------------3---------3-------3-----------3----|3-----||

B--------------3---------3-------3-----------3----|3-----||

G--------------0---------0-------0-----------0----|0-----||

D--------------0---------0-------0---------0-0h2p0|0-----||

A--------------2---------2-------2-----0h2--------|2-----||

E--3---------3-------3-----3---------3------------|3-----||

 

Return to my to my Smashing Pumpkins tabs page

The Tablature is Copyright its respective owners.

Sign Up For My Newsletter
Subscribe | Unsubscribe

Site Map | Disclaimer | Privacy Policy | Media Kit | Submissions/Corrections

Website © 2000-2014 mattsmusicpage.com. All rights reserved.

Get our toolbar!