Your One-Stop Source For
Music Lyrics
Bass and Guitar Tabs
and More...
Music Lyrics Bass and Guitar Tabs

 

The Tabs Are Below

Learn To Read Tab
Chords Handbook
Corrections & Additions
Get Official Tab
Smashing Pumpkins tabs @ 911Tabs

Song: Pug

Release: Adore (as played live)

Artist: The Smashing Pumpkins

Authors: 1. Michael Ries <zero69mr@aol.com>

2. Andrew <Slunk6666@aol.com>

3. Alex Van Den Broek <carlabu@es.co.nz>

4. Abby T. <LuNaG0dess@aol.com>

Tuning: Eb

 

-*-*-*-*-*-*-*-*-*-*-*-*-*-*-*-*-*-*-*-*-*-*-*-*-*-*-*-*-*-*-*-*-*-*-*-

 

I spent a while on the internet looking for a tab for this song but

I don't think there is one in excistence.This song is one of my favorites

off ADORE.It's much harder than any song on adore,well maybe not ava adore.

Anyways, here it is.Tune a 1/2 step down.I'm going to put chords down but

they are not always a guitar playing them so just listen and you'll hear it.

 

Fill 1

|------5-5-----5-5-----5-5-----5-5-----5-5-----5-5-----5-5-----5-5-

|------------------------------------------------------------------

|------------------------------------------------------------------

|------------------------------------------------------------------

|-----------------------------3-3-----5-5-----8-8-----7-7-----3-3--

|-3-3-----6-6------5-5---------------------------------------------

 

Chorus Fill

|--------------------------

|--------------------------

|--------------------------

|-2-----------------------

|---2---3-2-------3--0-

|-----------3---1--------

 

Fill 2

|----------------------------------------------------------------------

|----------------------------------------------------------------------

|-/12-10--/10-9--/9-7--7/2---/12-10--/10-9--/9-7--9-7/2----------------

|----------------------------------------------------------------------

|----------------------------------------------------------------------

|----------------------------------------------------------------------

 

INTRO-play fill 1 throughout

 

G-A#-A-C-D-F-E-C-G-A#-A-C-D-F-E-C

 

VERSE-w/fill 1 throughout

G A# A C

kiss and kill me sweetly

D F E C

come and drive me home

G A# A C

drag the miles in me

D F E C

I am yours alone

 

CHORUS

E C

inside where it's warm

F E G

wrap myself in you

E C

outside where I'm torn

F E G

fight myself in two

E G E G

in two into you

 

G-A#-A-C-D-F-E-C w/fill 2

 

VERSE-w/fill 1

G A# A C

Desire me so deeply

D F E C

drain and kick me hard

G A# A C

whisper secrets for me

D F E C

try to go too far

 

CHORUS

E C

inside where it's warm

F E G

wrap myself in you

(w/chorus fill)

E C

outside where I'm torn

F E G

fight myself in two

E G E G

in two into

 

BRIDGE

A D

please don't change

G D

please don't change at all

A D

bring your rain

G D

bring your rain to fall

 

CHORUS

(w/chorus fill)

E C

inside where it's warm

F E G

wrap myself in you

(w/chorus fill)

E C

outside where I'm torn

F E G

fight myself in two

E G E G

in two into you

 

BREAK-no guitar but you can play fill 1

 

VERSE-w/fill 1

G A# A C

come and kiss me sweetly

D F E C

ride the telephone

G A# A C

drag the miles to me

D F E C

I am yours alone

 

OUTRO-w/fill 1&2

G A# A C

yours alone

D F E C

yours alone on the telephone

G A# A C

yours alone looking for a kiss kiss

D F E C

yours alone

 

G-A#-A-C-D-F-E-C

 

at the very end there is a clean guitar doing something like this:

E|-7--/7--3-

 

Questions,comments,or corrections can be mailed to zero69mr@aol.com

 

*--*--*--*--*--*--*--*--*--*--*--*--*--*--*--*--*--*--*

 

version 2

---------

 

Tab by Andrew <Slunk6666@aol.com>

 

Here is the intro to pug....i think.......

 

----4------4-----4-----4-----4-----4-----4------4-

--------------------------------------------------

--------------------------------------------------

--------------------------------2-----1-----------

-------0------------2-----4-----------------2-----

-2-----------4------------------------------------

 

*--*--*--*--*--*--*--*--*--*--*--*--*--*--*--*--*--*--*

 

version 3

---------

 

Eb Tuning

 

Main Riff

---------

 

e|------5------5------5-----5--------5--------5-------5--------5|

B|--------------------------------------------------------------|

G|--------------------------------------------------------------|

D|--------------------------------------------------------------|

A|--------------------------------------------------------------|

E|-3-3----6-6----5-5----8-8----10-10----13-13----12-12----8-8---|

 

Kiss and kill me sweetly come and drive me home

drag the miles in me I am yours alone

 

Chorus

------

Asus2 ? C Asus2 G

In - side where its warm wrap myself in you

Out - side whre im torn Fight myself in two into you.....

 

 

Main riff again with fill

 

G|-/12-10----/10-9----/9-7----/7--2----/12-10----/10-9----/9-7----/9b10--7--|

 

Desire me so deeply drain and kick me hard

whisper secrets for me try to go too far

 

 

Chorus again with different words.

 

please dont change please dont change at all

bring your rain bring your rain to fall

 

from here on its got lotsa effects, but its all built arond the

main riff and the fill

heres the words

 

come and kiss me sweetly ride the telephone

drag the miles in me i am yours alone

yours alone on the telephone

yours alone looking for a kis kiss

yours alone

 

 

send comments to - Alex carlabu@es.co.nz

 

******************************------------------------------

 

Transcribed by Abby T. (7/13/98)

 

Tune Down 1/2 step: Eb Ab Db Gb Bb Eb

 

Slide - /

Bend - ^

 

Chord Fingerings:

Gm A#m Am C D E F7 F

E| 0 0 0 0 0 0 0 0

B| 0 0 0 0 0 0 0 0

G| 0 0 0 0 7 9 10 0

D| 5 8 7 10 7 9 10 3

A| 5 8 7 10 5 7 8 3

E| 3 6 5 8 5 7 8 1

 

Intro: Gm/A#m/Am/C/D/F7/E/C

(Repeated throughout the verses)

|---------5--------|

|-------------------|

|-------------------|

|-------------------|

|-----0------------|

|-------------------|

 

Gm A#m Am C

kiss and kill me sweetly

D F7 E C

come and drive me home

Gm A#m Am C

drag the miles in me

D F7 E C

I am yours alone

 

E C

inside where it's warm

F7 E F7

wrap myself in you

E C

outside where I'm torn

F7 E F7

fight myself in two

E F7

in two

E F7 Gm/ A#m/ Am/ C/ D/ F7/ E/ C

into..............you

 

|--------------------------------------------------------|

|--------------------------------------------------------|

|----/12/---10/2---10/----9----9/--7/2-----------|

|------------------------------------------------7/2----|

|--------------------------------------------------------|

|--------------------------------------------------------|

 

|---------------------------------------------------------|

|---------------------------------------------------------|

|----/12/----10/2----9----9/2----7---^7----9/2---|

|---------------------------------------------------------|

|---------------------------------------------------------| (Repeat througout

2nd Verse)

|---------------------------------------------------------|

 

Gm A#m Am C

desire me so deeply

D F E C

drain and kick me hard

Gm A#m Am C

whisper secrets for me

D F E C

try to go too far

 

E C

inside where it's warm

F7 E F7

wrap myself in you

E C

outside where I'm torn

F7 E F7

fight myself in two

E F7

in two

E F7

into...

 

|--------------------------------------------------------------------|

|--------10-------------10/12----12/10---10----10---10---|

|---------------9---------------------------------------------------|

|--------------------------------------------------------------------|

|--------------------------------------------------------------------|

|--------------------------------------------------------------------|

(3x During "please don't change....")

 

|--------------------------------------------------------------------|

|--------10-------------10/12-----------12/15----------------|

|--------------------------------------------------------------------|

|--------------------------------------------------------------------|

|--------------------------------------------------------------------|

|--------------------------------------------------------------------|

 

Am F

please don't change

D Gm

please don't change at all

Am F

bring your rain

D Gm

bring your rain to fall

E C

inside where it's warm

F7 E F7

wrap myself in you

E C

outside where I'm torn

F7 E F7

fight myself in two

E F7

in two

E F7 Gm/ A#m/ Am/ D/ F/ E/ C

into............... you

 

 

come and kiss me sweetly

ride the telephone

drag the miles to me

I am yours alone

yours alone

(on the telephone)

yours alone

(looking for a kiss kiss)

yours alone

 

(outro)

|----------------------------------------|

|-------12----10----8/12-------------|

| --12----------------------------------|

|----------------------------------------|

|----------------------------------------|

|----------------------------------------|

 

|------------------------------------------|

|----------12----10----8/12-------------|

|------------------------------------------|

|----12-----------------------------------|

|------------------------------------------|

|------------------------------------------|

 

 

 

Return to my to my Smashing Pumpkins tabs page

The Tablature is Copyright its respective owners.

Sign Up For My Newsletter
Subscribe | Unsubscribe

Site Map | Disclaimer | Privacy Policy | Media Kit | Submissions/Corrections

Website © 2000-2014 mattsmusicpage.com. All rights reserved.

Legal & DMCA: Matt's Music Page has been providing lyrics and tabs in a legal way, paying royalties each year to a few organizations. Then, all lyrics and tabs were removed from the site. Now, there's a new owner to the site, which purchased it August 26, 2014, and he is in negotiation to obtain licensing from BMI at the moment. If you have a specific DMCA request -- please do not hesitate to contact me via the contact button on top. I will do my very best to keep this site fully legal.

Get our toolbar!