Your One-Stop Source For
Music Lyrics
Bass and Guitar Tabs
and More...
>Music Lyrics Bass and Guitar Tabs

 

The Smashing Pumpkins Guitar Tabs Are Below

Learn To Read Tab
Chords Handbook
Corrections & Additions
Get Official Tab
Smashing Pumpkins tabs @ 911Tabs

Track 12: Pomp And Circumstances

------------------------------------------------------------

 

Pomp and Circumstances

 

Tuning: E A D G B E (standard E)

 

 

INTRO (la la la la la la laaa laaa laaa)

Synth arranged for guitar

|-------------------------------|-------------------------------|

|---5~~~~~~~-3~~~---------------|-3-5~~~~~~~-3~~~---------------|

|-----------------5~~~-5~~~~~~~-|-----------------5~~~-5~~~~~~~-|

|----------------------5~~~~~~~-|----------------------5~~~~~~~-|

|----------------------3~~~~~~~-|----------------------3~~~~~~~-|

|-------------------------------|-------------------------------|

 

VERSE

Synth arranged for guitar

|-------------------------------|

|-3-5~~~~~~~-3~~~---------------|

|-----------------5~~~-5~~~~~~~-|

|----------------------5~~~~~~~-|

|----------------------3~~~~~~~-|

|-------------------------------|

 

BRIDGE

 

|-------------------------------------------------|

|-5~~~~~~~----------3~~~~~~~(3)~~~~~~~(3)~~~~~~-5-|

|----------5~~~~~~~-------------------------------|

|-------------------------------------------------|

|-------------------------------------------------|

|-------------------------------------------------|

 

-------------------------------------------|

-------5~~~~~~~-3~~~~~~~----------3--------|

-5-----------------------5~~~~~~~------5---|

-------------------------------------------|

-------------------------------------------|

-------------------------------------------|

 

 

CHORUS (la la la la la la laaa laaa laaa)

Synth arranged for guitar

|-------------------------------|-------------------------------|

|---5~~~~~~~-3~~~-5~~~----------|-3-5~~~~~~~-3~~~-5~~~----------|

|----------------------5~~~~~~~-|----------------------5~~~~~~~-|

|----------------------5~~~~~~~-|----------------------5~~~~~~~-|

|----------------------3~~~~~~~-|----------------------3~~~~~~~-|

|-------------------------------|-------------------------------|

 

 

SOLO

Lead1

|------------------------------------------------|

|-/13~~~~-12~~-13-13~~---------------13~~~-12/13-|

|----------------------12-12~~~~~~~\-------------|

|------------------------------------------------|

|------------------------------------------------|

|------------------------------------------------|

 

--------------------------------------------|

-13~~~~-15~~-17-17~~-15-17~~~~~~~~~~~~~~~~--|

--------------------------------------------|

--------------------------------------------|

--------------------------------------------|

--------------------------------------------|

 

|Lead 2

|----------------------------------------------------------------------------|

|-/17~~~~-15~~-17-17~~---------------17~~~-15/17--17~~~~-20~~-22-22~~-20-22~-|

|----------------------17-17~~~~~~~\-----------------------------------------|

|----------------------------------------------------------------------------|

|----------------------------------------------------------------------------|

|----------------------------------------------------------------------------|

 

 

------------------|

~~~~~~~~~~~~~~~~--|

------------------|

------------------|

------------------|

------------------|

 

 

Lead (02:54)

|----------------------------------------------------|

|----------------------------------------------------|

|-7/9~~~~/12~~~~/14\12~~~~~~~~-12~~~~-12\9~~\7~~\5~~-|

|----------------------------------------------------|

|----------------------------------------------------|

|----------------------------------------------------|

 

-----------------------------------------|

-----------------------------------------|

~~~~~/9\5~~~~~~~~-5h7/9~~~~-9\5~~~~~~~---|

-----------------------------------------|

-----------------------------------------|

-----------------------------------------|

 

|------------------------15b17-----------------------------------15b17------------|

|-13~~~~-12~~-13-13~~-----------17gr15----13~~~~-12~~-13-13~~-----------17gr15----|

|---------------------12--------------------------------------12------------------|

|---------------------------------------------------------------------------------|

|---------------------------------------------------------------------------------|

|---------------------------------------------------------------------------------|

 

|------------------------15b17-----------------------------------15b17-----------------------|

|-13~~~~-12~~-13-13~~-----------17gr15----13~~~~-12~~-13-13~~-----------17gr15p13-17~~~~~~~~-|

|---------------------12--------------------------------------12-----------------------------|

|--------------------------------------------------------------------------------------------|

|--------------------------------------------------------------------------------------------|

|--------------------------------------------------------------------------------------------|

 

*************************************************************************

 

FINISHED

 

whoa that was alot, Hope this helps as UG doesnt have all the tabs here.

Click here to return to my Smashing Pumpkins Guitar Tabs page

The Tablature is Copyright its respective owners.

Sign Up For My Newsletter
Subscribe | Unsubscribe

Site Map | Disclaimer | Privacy Policy | Media Kit | Submissions/Corrections

Website © 2000-2014 mattsmusicpage.com. All rights reserved.

Legal & DMCA: Matt's Music Page has been providing lyrics and tabs in a legal way, paying royalties each year to a few organizations. Then, all lyrics and tabs were removed from the site. Now, there's a new owner to the site, which purchased it August 26, 2014, and he is in negotiation to obtain licensing from BMI at the moment. If you have a specific DMCA request -- please do not hesitate to contact me via the contact button on top. I will do my very best to keep this site fully legal.

Get our toolbar!

 


Signed Deadmau5 Mau5ville Level Complete Vinyl Box Set + Funko #193
$
Signed Deadmau5 Mau5ville Level Complete Vinyl Box Set + Funko #193 picture


Godzilla (Original Soundtrack) by Akira Ifukube (2018) 140 Gram Vinyl New
$
Godzilla (Original Soundtrack) by Akira Ifukube (2018) 140 Gram Vinyl New picture


Raiders Of The Lost Ark Book & Record Vinyl Record Rare 80s Collectable
$
Raiders Of The Lost Ark Book & Record Vinyl Record Rare 80s Collectable picture


LISTEN--LOT of TWO Vintage Button Pinbacks 70s-90s MIXED (#15)
$
LISTEN--LOT of TWO Vintage Button Pinbacks 70s-90s MIXED (#15) picture


35 Edison Diamond Disc Records - Assortment From Amazing Collection
$
35 Edison Diamond Disc Records - Assortment From Amazing Collection picture


MARVEL POWER RECORDS BOOK & RECORD SET (LOT OF 5) PLEASE SEE BELOW FOR DETAILS
$
MARVEL POWER RECORDS BOOK & RECORD SET (LOT OF 5) PLEASE SEE BELOW FOR DETAILS picture


4 Little Golden Records Children Disney Music Mickey Mouse Alice in Wonderland
$
4 Little Golden Records Children Disney Music Mickey Mouse Alice in Wonderland picture


1958 Oldsmobile Dealer 12” Red Vinyl LP Record Bill Hayes Florence Henderson
$
1958 Oldsmobile Dealer 12” Red Vinyl LP Record Bill Hayes Florence Henderson picture


THE GREAT RADIO HORROR SHOWS, 3 LP Box Set-1975, Lugosi-Karloff-Carradine & more
$
THE GREAT RADIO HORROR SHOWS, 3 LP Box Set-1975, Lugosi-Karloff-Carradine & more picture


KISS ME LOT of 4 Vintage Button Pinbacks 70s-90s MIXED (#12)
$
KISS ME LOT of 4 Vintage Button Pinbacks 70s-90s MIXED (#12) picture