Your One-Stop Source For
Music Lyrics
Bass and Guitar Tabs
and More...
Music Lyrics Bass and Guitar Tabs

 

The Tabs Are Below

Learn To Read Tab
Chords Handbook
Corrections & Additions
Get Official Tab
Smashing Pumpkins tabs @ 911Tabs

Pissant

Smashing Pumpkins

 

 

Tune to Eb (Eb, Ab, Db, Gb, Bb, Eb)

 

*1 play 4x

|--------------------------------------------

|--------------------------------------------

|---------------7--7-7-----------------------

|-2---5---7/9---7--7-7X-7/(9)----------------

|-2---5---7/9---5--5-5X-7/(9)----------------

|-0-0-3-0-5/7-0-------X-5/(7)----------------

 

at end of above riff, fourth time, play this:

|--------------------------------------------

|--------------------------------------------

|-9\-------9\-------7\-------9\--------------

|-9\-------9\-------7\-------9\--------------

|-7\-------7\-------5\-------7\--------------

|-7\-------7\-------5\-------7\--/12~--------

^got ^got ^can't

me a me an help...

raygun altitude

 

then repeat *1 along with lyrics

 

*2

|--------------------------------------------

|--------------------------------------------

|--------------------------------------------

|------9\8-8\7-7------9\8-8\7-7------9\8-8\7-

|------9\8-8\7-7------9\8-8\7-7------9\8-8\7-

|-0--0-7\6-6\5-5-0--0-7\6-6\5-5-0--0-7\6-6\5-...and so on `till:

 

*3

|------------------------------------------------

|------------------------------------------------

|------------------------------------------------

|-5-5-5-5-5-5-5-5-5-5-5-5-5-5-5-5-7-7-7-7-7-7-7-7

|-5-5-5-5-5-5-5-5-5-5-5-5-5-5-5-5-7-7-7-7-7-7-7-7

|-3-3-3-3-3-3-3-3-3-3-3-3-3-3-3-3-5-5-5-5-5-5-5-5

 

|----------------------------------------------

|----------------------------------------------

|-----------------7---7-\-5-------7---7-\-5----

|-7-7-7-7-7-7-7-7-7---7-\-5---5---7---7-\-5---5

|-7-7-7-7-7-7-7-7-5---5-\-3---5---5---5-\-3---5

|-5-5-5-5-5-5-5-5-------------3---------------3 ...and on...

 

Repeat *1 with solo

Drum fill..."C'mon honey, let's go for a ride

down where the crickets learn to sing and play...

baby"

 

Repeat *1

End with *2

 

Return to my to my Smashing Pumpkins tabs page

The Tablature is Copyright its respective owners.

Sign Up For My Newsletter
Subscribe | Unsubscribe

Site Map | Disclaimer | Privacy Policy | Media Kit | Submissions/Corrections

Website © 2000-2014 mattsmusicpage.com. All rights reserved.

Legal & DMCA: Matt's Music Page has been providing lyrics and tabs in a legal way, paying royalties each year to a few organizations. Then, all lyrics and tabs were removed from the site. Now, there's a new owner to the site, which purchased it August 26, 2014, and he is in negotiation to obtain licensing from BMI at the moment. If you have a specific DMCA request -- please do not hesitate to contact me via the contact button on top. I will do my very best to keep this site fully legal.

Get our toolbar!

 

VINTAGE SORRENTO MUSIC JEWELRY BOX
$45.0
VINTAGE SORRENTO MUSIC JEWELRY BOX picture


VINTAGE LACQUERED MUSIC BOX JAPAN
$25.99
VINTAGE LACQUERED MUSIC BOX JAPAN picture


Vintage Kehlsteinhaus Bavaria Germany Colorscope Cow Bell View Master Music Box
$8.99
Vintage Kehlsteinhaus Bavaria Germany Colorscope Cow Bell View Master Music Box picture


VINTAGE SCHMIDT Signed Collectible Musical Turning Clown
$9.99
VINTAGE  SCHMIDT Signed Collectible Musical Turning Clown picture


Vintage - Linen - Postcard - Stage - Radio City Music Hall - New York City
$3.75
Vintage - Linen - Postcard - Stage - Radio City Music Hall - New York City   picture