Your One-Stop Source For
Music Lyrics
Bass and Guitar Tabs
and More...
Music Lyrics Bass and Guitar Tabs

 

The Tabs Are Below

Learn To Read Tab
Chords Handbook
Corrections & Additions
Get Official Tab
Smashing Pumpkins tabs @ 911Tabs

Not Worth Asking

Smashing Pumpkins

 

 

 

Intro:

Mimic the rhythm with these chords:

|-3--0-- |-0-

|-0--0-- |-0-

|-0--0-- or instead of that |-0-

|-2--2-- wierd E you can play |-2-

|-2--3-- Em instead: |-2-

|-0----- |-0-

 

*1 (riff 1)

> >

|----0----0--0---------0--------------------------------

|----3----3--0-0---------0-0-0---0---0---0--------------

|----0----0--0---0---------0-0---0-0-0---0--------------

|-2--2----2--2-----2-------0-0-0-0-0-0-0-0--------------

|-2--2----2--3-------3-----2-2-2-2-2-2-2-2--------------

|-0--0----0----------------3---3---3---3----------------

^repeat 3x

 

repeat *1 2x

 

*2

 

|-0-0-0-0-0-0-0-0-0-0-0-0-------------------------------

|-3-0-1-0-1-0-3-0-1-0-1-0-0-----------------------------

|-0-0-0-0-0-0-0-0-0-0-0-0-0-----------------------------

|-2-2-2-2-2-2-2-2-2-2-2-2-0-----------------------------

|-3-3-3-3-3-3-3-3-3-3-3-3-2-----------------------------

|-------------------------3-----------------------------

^first time only

 

repeat *1 3x

 

Lead (over *1)

G1 distortion

 

|-------------------------------------------------------

|-------------------------------------------------------

|-----0-2-2-4hbr-----0-2-2-4hbr-2-----0-2-2-4hbr-4-5/6~~

|---2--------------2----------------2-------------------

|-------------------------------------------------------

|-0--------------0----------------0---------------------

 

*3

G1 still distorted over *1 (G2)

 

|-------------------------------------------------------

|-------------------------------------------------------

|-----0-2----------0-2---------0-2----------------------

|---2-----0------2-----0-2---2-----0--------------------

|-------------------------------------------------------

|-0------------0-----------0----------------------------

 

repeat *2

 

*4

Both guitars distortion

 

(gee, I don't wanna write out this rhythm...you get the idea)

 

|-0--0--0-0-0-3-----3-----3-0--0--0--0------------------

|-3--3--3-3-3-3-----3-----3-1--1--1--1------------------

|-0--0--0-0-0-0-----0-----0-2--2--2--2------------------

|-2--2--2-2-2-0-----0-----0-3--3--3--3------------------

|-2--2--2-2-2-2-----2-----2-3--3--3--3------------------

|-0--0--0-0-0-3-----3-----3-----------------------------

 

repeat intro, this time with distortion (G2)

 

Solo (G1)

 

|-------------------------------------------------------

|-0-0-0-0--0--0--0--0-0-0-0--0-0-0-0--0-----------------

|-5-5-5-5--5--5--5--5-5-5-5--5-5-5-5--5-7~~~-7-7-9-9\---

|-------------------------------------------------------

|-------------------------------------------------------

|-------------------------------------------------------

 

|-------------------------------------------------------

|-0-0-0-0--0--------------------------------------------

|-5-5-5-5--5-7~~~-7--7-7-9~9--9-9~~~~\------------------

|-------------------------------------------------------

|-------------------------------------------------------

|-------------------------------------------------------

 

repeat *1 2x

 

Lead fill (G1 slightly distorted) over second time *1 played

here....something like this:

 

|---------------------------------------------------

|---------------------------------------------------

|---------------------------------------------------

|---5/7-7-9hbr-7-9-----5/7-7-5----------------------

|-7------------------7---------5-7------------------

|---------------------------------------------------

 

*5

Both guitars distortion

 

|-0--0--0-0-0(3)-0--0-0-0-0--0--0-0-0-0--0--0-0-0-3--3-3-

|-0--0--0-0-0-0--0--0-0-0-0--0--0-0-0-0--0--0-0-0-3--3-3-

|-2--2--2-2-2-0--0--0-0-0-2--2--2-2-2-0--0--0-0-0-0--0-0-

|-3--3--3-3-3-0--0--0-0-0-2--2--2-2-2-2--2--2-2-2-0--0-0-

|-3--3--3-3-3-2--2--2-2-2-0--0--0-0-0-2--2--2-2-2-2--2-2-

|-1--1--1-1-1-3--3--3-3-3-------------0--0--0-0-0-3--3-3-

^You can add ^ ^ ^

that high G last time

if ya wanna only.

for this G

chord.

 

repeat *5 4x

 

repeat *4 till the end

 

Lyrics

------

 

Not worth askin'

who I'm s'posed to be.

Not worth sayin'

seems I'm free.

 

No worth reachin'

to anyone at all.

No worth reachin'

out to stop this fall

 

I'm on my own.

Yeah, on my own.

 

Not worth being.

I might already be.

I just want someone to reach for me.

 

Not worth sinkin'.

It's not worth diggin' down.

I've been here before and hate what I've found.

 

(Chorus)

It's too late, too late

I'm on my own, I'm on my own

I gotta go

So far away.

Yeah it's too late, too late

I'm on my own, I'm on my own

I gotta go

So far away...so far away.

 

Not worth askin'

Who I'm s'posed to be.

Not worth sayin' something.

Seems I'm free.

 

Not worth reachin'

to anyone at all.

Not worth reachin' out

I'll stop this fall.

 

But I like you just the same.

You've got to know somehow

that I'm the one to blame.

We've gone so far along

to end this destiny.

You've got to know somehow..that

 

Chorus

------

 

Return to my to my Smashing Pumpkins tabs page

The Tablature is Copyright its respective owners.

Sign Up For My Newsletter
Subscribe | Unsubscribe

Site Map | Disclaimer | Privacy Policy | Media Kit | Submissions/Corrections

Website © 2000-2014 mattsmusicpage.com. All rights reserved.

Legal & DMCA: Matt's Music Page has been providing lyrics and tabs in a legal way, paying royalties each year to a few organizations. Then, all lyrics and tabs were removed from the site. Now, there's a new owner to the site, which purchased it August 26, 2014, and he is in negotiation to obtain licensing from BMI at the moment. If you have a specific DMCA request -- please do not hesitate to contact me via the contact button on top. I will do my very best to keep this site fully legal.

Get our toolbar!