Your One-Stop Source For
Music Lyrics
Bass and Guitar Tabs
and More...
>Music Lyrics Bass and Guitar Tabs

 

The Tabs Are Below

Learn To Read Tab
Chords Handbook
Corrections & Additions
Get Official Tab
Smashing Pumpkins tabs @ 911Tabs

Mouths Of Babes

Smashing Pumpkins

 

 

Tune down 1/2 Step

 

Intro and outtro

|---------------------------------------------------------------|

|---------------------------------------------------------------|

|---------------------------------------------------------------| 3x

|--------------------7--7-7-6--0-0--4-s-6-6-6-6--7-7--9-11--0-0-|

|---4-p-2---------0--7--7-7-6--0-0--4-s-6-6-6-6--7-7--9-11--0-0-|

|----------4-p-2--0--5--5-5-4--0-0--2-s-4-4-4-4--5-5--7--9--0-0-|

 

|---------------------------------------------------|

|---------------------------------------------------|

|---------------------------------------------------|

|--------------------7--7-7-6--0-0--4-s-6-6--7--4\--|

|---4-p-2---------0--7--7-7-6--0-0--4-s-6-6--7--4\--|

|----------4-p-2--0--5--5-5-4--0-0--2-s-4-4--5--4\--|

The fourth fret slide at the end of the song slides down to open, then tune down and hold it. Then

tune up to dropped Db while holding the open note

 

Verse

|-------------------------------------------------------------------|

|-------------------------------------------------------------------|

|-------------------------------------------------------------------|

|--9-s11--111111---2--2-2-2--0-0--4-s-6--6-6-6--7-7-7--9-s11--1111--|

|--9-s11--111111---2--2-2-2--0-0--4-s-6--6-6-6--7-7-7--9-s11--1111--|

|--7-s-9--9-9-9----0--0-0-0--0-0--2-s-4--4-4-4--5-5-5--7-s-9--9-9---|

 

|----------------------------------------------------------------------|

|----------------------------------------------------------------------|

|----------------------------------------------------------------------| 2x

|--9-s11--111111---2--2-2-2--0-0--4-s-6--6-6-6--7-7--0-----------------|

|--9-s11--111111---2--2-2-2--0-0--4-s-6--6-6-6--7-7--0-----------------|

|--7-s-9--9-9-9----0--0-0-0--0-0--2-s-4--4-4-4--5-5--0--2(bend full)---|

 

Chorus

|-----------------------------------------------------|

|-----------------------------------------------------|

|--6--------------------------------------------------| 3x

|--6--0--7--7-7-7--6--0-0-7-s-9--9-9-9--4-4-4-4--0-0--|

|--4--0--7--7-7-7--6--0-0-7-s-9--9-9-9--4-4-4-4--0-0--|

|-----0--5--5-5-5--4--0-0-5-s-7--7-7-7--2-2-2-2--0-0--|

|-------------------------------------------------------------------------|

|-------------------------------------------------------------------------|

|-------------------------------------------------------------------------|

|-4-s-6--6-6-6-6-6-6-6-6-6--6-6-6-s-7--7-7-7--7-7-7-s-9--9-9-9-9-9-9-9-9--|

|-4-s-6--6-6-6-6-6-6-6-6-6--6-6-6-s-7--7-7-7--7-7-7-s-9--9-9-9-9-9-9-9-9--|

|-2-s-4--4-4-4-4-4-4-4-4-4--4-4-4-s-5--5-5-5--5-5-5-s-7--7-7-7-7-7-7-7-7--|

 

Bridge

|---------------------------------------------------------------------------|

|---------------------------------------------------------------------------|

|---------------------------------------------------------------------------| 4x

|---------------7-s-9-s-7--7-7-7--7-7-s-6--6-6-6--6-6-s-4--4-4-4--4-4--0-0--|

|---------------7-s-9-s-7--7-7-7--7-7-s-6--6-6-6--6-6-s-4--4-4-4--4-4--0-0--|

|--4-2-2-0--5-s-7-s-5-s-5--5-5-5--5-7-s-4--4-4-4--4-4-s-2--2-2-2--2-2--0-0--|

 

|------0-0-0-0-0-------------0-0-0-0--------------0-0-0-0---------------------|

|------0-0-0-0-0-------------0-0-0-0--------------0-0-0-0---------------------|

|--6-6-6-6-6-6-6--------------------------------------------------------------|

|--6-6-6-6-6-6-6--0-0--2-2-2-2-2-2-2---0-0--7-7-7-7-7-7-7--0-0--6--6-6-6-0-0--|

|--4-4-4-4-4-4-4--0-0--2-2-2-2-2-2-2---0-0--7-7-7-7-7-7-7--0-0--6--6-6-6-0-0--|

|-----------------0-0--0-0-0-0-0-0-0---0-0--5-5-5-5-5-5-5--0-0--4--4-4-4-0-0--|

 

|-----|---------------|-------------------|

|-----|---------------|-------------------|

|-----|---------------|-------------------|

|--4--|---7--7--7-7-7-|--9-9-9-9-9-9-9-9--|

|--4--|---7--7--7-7-7-|--9-9-9-9-9-9-9-9--|

|--2--|---5--5--5-5-5-|--7-7-7-7-7-7-7-7--|

 

The very last outtro(dropped Db tuning)

 

|----------------------------------------------------------------------------------|

|----------------------------------------------------------------------------------|

|----------------------------------------------------------------------------------|

|--2-0--0--2-2-2--2-4-4-4-4--6-6-6------------------------4---4-3--|

|--2-0--0--2-2-2--2-4-4-4-4--6-6-6---------2-p-0----------4---4-3--|

|--2-0--0--2-2-2--2-4-4-4-4--6-6-6--4\0------------4-2-0--4---4-3--|

 

Return to my to my Smashing Pumpkins tabs page

The Tablature is Copyright its respective owners.

Sign Up For My Newsletter
Subscribe | Unsubscribe

Site Map | Disclaimer | Privacy Policy | Media Kit | Submissions/Corrections

Website © 2000-2014 mattsmusicpage.com. All rights reserved.

Legal & DMCA: Matt's Music Page has been providing lyrics and tabs in a legal way, paying royalties each year to a few organizations. Then, all lyrics and tabs were removed from the site. Now, there's a new owner to the site, which purchased it August 26, 2014, and he is in negotiation to obtain licensing from BMI at the moment. If you have a specific DMCA request -- please do not hesitate to contact me via the contact button on top. I will do my very best to keep this site fully legal.

Get our toolbar!

 

COOL Vtg RETRO AIRGUIDE Weather Station~BANJO Style~Barometer Therm., Humidity
$18.0
COOL Vtg RETRO AIRGUIDE Weather Station~BANJO Style~Barometer Therm., Humidity picture


The Office Bobblehead Andy Bernard Banjo GREAT CONDITION Ed Helms RARE Bobble
$44.99
The Office Bobblehead Andy Bernard Banjo GREAT CONDITION Ed Helms RARE Bobble picture


WASHBURN GUITARS *MAGNET* VINTAGE ADS MANDOLINS BANJOS INSTRUMENTS SIGN MUSIC
$4.95
WASHBURN GUITARS *MAGNET* VINTAGE ADS MANDOLINS BANJOS INSTRUMENTS SIGN MUSIC picture


Turtleman TM034 Banjo Neal Mud Snapper Fixed Blade Knife Assisted Open
$14.35
Turtleman TM034 Banjo Neal Mud Snapper Fixed Blade Knife Assisted Open picture


BANJO ON MY KNEE 1936 = Barbara Stanwyck JOEL McCREA = 14" RP = Movie Lobby Card
$24.54
BANJO ON MY KNEE 1936 = Barbara Stanwyck JOEL McCREA = 14