Your One-Stop Source For
Music Lyrics
Bass and Guitar Tabs
and More...
Music Lyrics Bass and Guitar Tabs

 

The Tabs Are Below

Learn To Read Tab
Chords Handbook
Corrections & Additions
Get Official Tab
Smashing Pumpkins tabs @ 911Tabs

Song: The Last Song

Release: TAFH

Artist: The Smashing Pumpkins

Author: Chris Durkin <durkin99@atl.mindspring.com>

Andy Hale (solo)

Tuning: standard (although Eb sounds better - A. Stanecki)

 

-*-*-*-*-*-*-*-*-*-*-*-*-*-*-*-*-*-*-*-*-*-*-*-*-*-*-*-*-*-*-*-*-*-*-*-

 

Chords (in standard tuning):

 

Ab - 466544

Ab6 - 446564

Db - 446664 (or 9 11 11 10 9 9)

Cm - 335543

Bb - 688766

 

(The solo is based on the Ab major scale played on the high E string)

 

Ab

This is the last song,

Ab6 Ab

This is the last song I'll sing for you

 

This is the last song,

Ab6 Ab

This is the last song I can give you

Db Ab

The roaring city sleeps,

Db Ab Db

Metal fingers clutching dirty sheets

Ab Cm

And no one comes for free in this place

Bb Cm Ab6

where the angels sleep

Ab Cm Ab6

This is the last song

Ab

This is the last song

 

 

Ab

My eyes are wonder

Ab6 Ab

My eyes are open wonder to this

 

As you hold the secrets

Ab6 Ab

I count the minutes off so perfectly

Db Ab

The shards of broken glass

Db Ab Db

Sing the strains of a sad old tune

Ab

We've made it at last

Cm Bb Cm Ab6

but what we had is lost inside our past

Ab Cm Ab6

This is the last song

Ab

This is the last song

Db Ab

Could you find a way across me

Db Ab

To forgive and forget me

Db Ab

To appease and relent me

Db Ab

To deceive and detect me

Db Ab

To understand and release me

Cm Ab6

To the dawn

Ab Cm Ab6

This is the last song

Ab Cm Ab6

This is the last song

Ab Cm Ab6

This is the last song

Ab Cm Ab6

This is the last song

 

Ab Ab6 Ab

 

 

The Last Song - Guitar Solo

Transcribed by Andy Hale

Tune Down 1/2 Step: Eb Ab Db Gb Bb Eb

 

||-------------------------------------------------------------------

||----------------------------------------------------------------9--

||----5-6/5--3/5----5/6--8/5---------5--5/6--8/5-------8/10-10-10----

||----------------------------8-6-----------------8-6----------------

||-------------------------------------------------------------------

||-------------------------------------------------------------------

 

 

 

||---------------------------------------------------17b-17-17-------

||-------------------------------------------------9-----------17-19-

||-8/10--5/6----------------6---8-8--5-5--6-6--8-8-------------------

||-----------88-66---6/8--8------------------------------------------

||-------------------------------------------------------------------

||-------------------------------------------------------------------

 

 

||-------------------

||-12b-12------------

||--------14--11-----

||-------------------

||-------------------

||-------------------

 

Return to my to my Smashing Pumpkins tabs page

The Tablature is Copyright its respective owners.

Sign Up For My Newsletter
Subscribe | Unsubscribe

Site Map | Disclaimer | Privacy Policy | Media Kit | Submissions/Corrections

Website © 2000-2014 mattsmusicpage.com. All rights reserved.

Legal & DMCA: Matt's Music Page has been providing lyrics and tabs in a legal way, paying royalties each year to a few organizations. Then, all lyrics and tabs were removed from the site. Now, there's a new owner to the site, which purchased it August 26, 2014, and he is in negotiation to obtain licensing from BMI at the moment. If you have a specific DMCA request -- please do not hesitate to contact me via the contact button on top. I will do my very best to keep this site fully legal.

Get our toolbar!