Your One-Stop Source For
Music Lyrics
Bass and Guitar Tabs
and More...
Music Lyrics Bass and Guitar Tabs

 

The Tabs Are Below

Learn To Read Tab
Chords Handbook
Corrections & Additions
Get Official Tab
Smashing Pumpkins tabs @ 911Tabs

La Dolly Vita

Smashing Pumpkins

 

 

||-------------------------------------------------------------------------

||-------------------------------------------------------------------------

||-------------------------------------------------------------------------

||-1h3----3-3-3----3--1--3---3--3b(4)b3------------------------------------

 

 

[Main Guitar Riff]: Chords that are played under the base. This is acoustic

guitar and is strummed very _lightly_. This part is very

hard to make out so once again it is could be wrong.

 

||-1/3----3-3-3----3--1--3---3--3------------------------------------------

||-1/3----3-3-3----3--1--3---3--3------------------------------------------

||-2/4----4-4-4----4--2--4---4--4--(sustain)-------------------------------

||-3/5----5-5-5----5--3--5---5--5------------------------------------------

||-3/5----5-5-5----5--3--5---5--5------------------------------------------

||-1/3----3-3-3----3--1--3---3--3------------------------------------------

 

 

[BASE Fill 1]: Just the base and Jimmy's cymbols here.

Can be played on guitar also.

||--------------

||--------------

||--3----2------

||--------------

 

Intro: [MAIN RIFF] 4x's

 

 

[Main Riff]: Played through entire song, except when [BASE Fill 1] is

played then [Main Riff] starts up again

 

I lay my head on her bosom

To cry myself to sleep

I see no greater wisdom [BASE Fill 1]

She has given me [Main Riff] starts up here after this line

 

 

[Fill 1][electric]: This is a SLOW slide. Listen to the CD

||--------------

||---8-/--12----

||--------------

||--------------

||--------------

||--------------

 

 

La Dolly Vita [Fill 1]

Sweet as true love

La Dolly Vita [Fill 1]

Cool as ice cream

Cool as ice cream

 

[Solo][electric]: I KNOW this isn't exact, but its sounds fairly close.

oh yah, you better appreciate this solo!

||---------------------------------------------------------------------

||--10b(11)b10----------------10b(11)b10-----10--8/12--12~~-----10h12--

||--------------12-12~~-------------------12---------------------------

||---------------------------------------------------------------------

||---------------------------------------------------------------------

||---------------------------------------------------------------------

slow bend

-------------------------------------------------------------------------

--12b(13)b12-10--10\8-8-8\6-6-6\5-5-5b(6)b5-3--5--3--5--3~~~~------------

-------------------------------------------------------------------------

-------------------------------------------------------------------------

-------------------------------------------------------------------------

-------------------------------------------------------------------------

 

[Main Riff]

You hear a lot of visions

You can't even stop

Can't see what you're missing

Spinning like a top

 

[small variation from the main riff]: Figure it out. Not tuff.

Fade away I want to see her

Fade away I want to see her

I only want to meet her

 

[Main Riff]

La Dolly Vita [Fill 1]

True as blue sky

La Dolly Vita [Fill 1]

Cool as ice cream

Cool as ice cream

 

[Some Crash Cymbols]

Take it all the way down

Forsake ones you have now

Take it all the way down

 

Return to my to my Smashing Pumpkins tabs page

The Tablature is Copyright its respective owners.

Sign Up For My Newsletter
Subscribe | Unsubscribe

Site Map | Disclaimer | Privacy Policy | Media Kit | Submissions/Corrections

Website © 2000-2014 mattsmusicpage.com. All rights reserved.

Legal & DMCA: Matt's Music Page has been providing lyrics and tabs in a legal way, paying royalties each year to a few organizations. Then, all lyrics and tabs were removed from the site. Now, there's a new owner to the site, which purchased it August 26, 2014, and he is in negotiation to obtain licensing from BMI at the moment. If you have a specific DMCA request -- please do not hesitate to contact me via the contact button on top. I will do my very best to keep this site fully legal.

Get our toolbar!