Your One-Stop Source For
Music Lyrics
Bass and Guitar Tabs
and More...
>Music Lyrics Bass and Guitar Tabs

 

The Tabs Are Below

Learn To Read Tab
Chords Handbook
Corrections & Additions
Get Official Tab
Smashing Pumpkins tabs @ 911Tabs

Song: Kooks

Release: performed live

Artist: The Smashing Pumpkins

Author: Jonathan Frank

Tuning: standard

Notes: David Bowie cover

 

-*-*-*-*-*-*-*-*-*-*-*-*-*-*-*-*-*-*-*-*-*-*-*-*-*-*-*-*-*-*-*-*-*-*-*-

 

 

----------|

------3-.-|

--2---2---|

--2---0---|

--0---0-.-|

----------|

 

x4 x4

|---------|-----|---------|------

|--3----.-|--1--|-----3-.-|--1---

|--2--2---|--0--|--2--2---|--0---

|--0--2---|--2--|--2--0---|--2---

|--0--0-.-|--3--|--0----.-|--3---

|---------|-----|---------|------

 

 

x4 x4

|---------|-----|---------|------

|--3----.-|--1--|-----3-.-|--1---

|--2--2---|--0--|--2--2---|--0---

|--0--2---|--2--|--2--0---|--2---

|--0--0-.-|--3--|--0----.-|--3---

|---------|-----|---------|------

 

x4

----------|

--3-----.-|

--2--2----|

--0--2----|

-----0--.-|

----------|

 

x2 x2

----------|----------|----------

--3-----.-|-----3--.-|--3-------

--2--2----|--2--2----|--2--2----

--0--2----|--2--0----|--0--2----

-----0--.-|--0-----.-|-----0----

----------|----------|----------

 

 

x4 x4

|---------|-----|---------|------

|--3----.-|--1--|-----3-.-|--1---

|--2--2---|--0--|--2--2---|--0---

|--0--2---|--2--|--2--0---|--2---

|--0--0-.-|--3--|--0----.-|--3---

|---------|-----|---------|------

 

 

x4

----------|

--3-----.-|

--2--2----|

--0--2----|

-----0--.-|

----------|

 

x2 x2

----------|----------|----------

--3-----.-|-----3--.-|--3-------

--2--2----|--2--2----|--2--2----

--0--2----|--2--0----|--0--2----

-----0--.-|--0-----.-|-----0----

----------|----------|----------

 

 

x4 x4

|---------|-----|---------|------|-----

|--3----.-|--1--|-----3-.-|--1---|-----

|--2--2---|--0--|--2--2---|--0---|--2--

|--0--2---|--2--|--2--0---|--2---|--2--

|--0--0-.-|--3--|--0----.-|--3---|--0--

|---------|-----|---------|------|-----

 

Return to my to my Smashing Pumpkins tabs page

The Tablature is Copyright its respective owners.

Sign Up For My Newsletter
Subscribe | Unsubscribe

Site Map | Disclaimer | Privacy Policy | Media Kit | Submissions/Corrections

Website © 2000-2014 mattsmusicpage.com. All rights reserved.

Legal & DMCA: Matt's Music Page has been providing lyrics and tabs in a legal way, paying royalties each year to a few organizations. Then, all lyrics and tabs were removed from the site. Now, there's a new owner to the site, which purchased it August 26, 2014, and he is in negotiation to obtain licensing from BMI at the moment. If you have a specific DMCA request -- please do not hesitate to contact me via the contact button on top. I will do my very best to keep this site fully legal.

Get our toolbar!

 

Hello Kitty Aux Speakers Amplify 10X WORKS WITH - IPHONE,IPAD IPOD,MP3-4 PLAYER
$9.99
Hello Kitty Aux Speakers Amplify 10X WORKS WITH - IPHONE,IPAD IPOD,MP3-4 PLAYER picture


Heathkit Promotional Poster - Circuit Board Transistors Radio Amplifier
$10.0
Heathkit Promotional Poster - Circuit Board Transistors Radio Amplifier  picture


WURLITZER 2104 Cover Amplifier # 532 ... Original
$19.99
WURLITZER 2104  Cover Amplifier # 532 ... Original picture


AMPLIFIER FOR SEEBURG 50'S JUKEBOXES
$125.0
AMPLIFIER FOR SEEBURG 50'S JUKEBOXES picture


1960'S PHOTO GRANDPA W/ GRANDAUGHTER GUITAR AND AMPLIFIER CUTE CAPTION ON BACK
$9.99
 1960'S PHOTO GRANDPA W/ GRANDAUGHTER GUITAR AND AMPLIFIER CUTE CAPTION ON BACK picture