Your One-Stop Source For
Music Lyrics
Bass and Guitar Tabs
and More...
Music Lyrics Bass and Guitar Tabs

 

The Tabs Are Below

Learn To Read Tab
Chords Handbook
Corrections & Additions
Get Official Tab
Smashing Pumpkins tabs @ 911Tabs

Jennifer Ever

Smashing Pumpkins

 

 

Begin w/ pickup on an F chord, then play through main progression a couple

times, then the tab...

Main chord progressions: Am/Am2... F | Am Em G F | (repeat)

for chorus ("My...noone"): Am Em | Am Em | Am Em | F ("someone just...")

 

Am Am2 Am Am2 F

She always waits for someone

Am Em G F

Someone who'll never leave

Am Am2 Am Am2 F

Reliving her decision

Am Em G F

Her arms cover me

 

 

Am Em

My couple, noone

Am Em

To anyone believe

Am Em

She always waits for someone

F (tab)

Someone, someone just like me

 

(tab)

Jennifer

Jennifer ever

Jennifer

 

 

(same chord pattern repeats for other verses):

 

Jennifer always tells me

Please don't be afraid

I just want to hold you

I only want you to stay

 

My couple, noone

To anyone believe

She always waits for someone

Someone

Someone just like me

 

Jennifer

Jennifer ever

Jennifer

 

Jennifer

Jennifer ever

Jennifer

 

My couple, noone

To anyone believe

She always waits for someone

Someone

Someone just like me

 

Jennifer

Jennifer ever

Jennifer

 

----------------------

Chords:

 

Am Am2 Em F G

E---0---0----0--1--3-

B---1---0----0--1--0-

G---2---2----0--2--0-

D---2---2----2--3--0-

A---0---0----2--3--2-

E---x---x----0--1--3-

 

The following tab is played during the "Jennifer...Jennifer ever..." part,

and a few times elsewhere, i.e. beginning, between w/o singing, etc....

 

 

E|---------------|---------------|

B|---------------|--------0------|

G|---------------|----------2----|

D|----2---3---2--|----3-------3--| (repeat 3x, on 4th time play F chord on

A|0-0---0---0----|---------------| last beat as pickup to next measure)

E|--------------3|--3---3--------|

 

 

 

Here's what I got for the solo:

 

a a2 a a2 F a e G F

E|---------------|---------------|---------------|-------------------|

B|--1-1-1-0-----0|---------------|---------------|----------------0-1|

G|------------2--|--2------------|--------0-2-3-2|--3-2/3\2-0--------|

D|---------------|---------------|--0-2-3--------|-------------------|

A|---------------|---------------|---------------|-------------------|

E|---------------|---------------|---------------|-------------------|

 

a a2 a a2 F a e G

E|-----------------|-----------------|---------------|--3-3-3-3-3-3-3|

B|--0---0---1-3-3/5|--5-5-0-0/1\0---1|--0-1-0---0----|--0-0-0-0-0-0-0| <-just

G|----2------------|--------------2--|--------2---0--|--0-0-0-0-0-0-0| G maj

D|-----------------|-----------------|---------------|--0-0-0-0-0-0-0| chords

A|-----------------|-----------------|---------------|--2-2-2-2-2-2-2| here.

E|-----------------|-----------------|---------------|--3-3-3-3-3-3-3|

 

G(off) F

E|3----------------|

B|0---1/3\1-0-1----|

G|0----------------|

D|0----------------|

A|2----------------|

E|3----------------|

 

Return to my to my Smashing Pumpkins tabs page

The Tablature is Copyright its respective owners.

Sign Up For My Newsletter
Subscribe | Unsubscribe

Site Map | Disclaimer | Privacy Policy | Media Kit | Submissions/Corrections

Website © 2000-2014 mattsmusicpage.com. All rights reserved.

Legal & DMCA: Matt's Music Page has been providing lyrics and tabs in a legal way, paying royalties each year to a few organizations. Then, all lyrics and tabs were removed from the site. Now, there's a new owner to the site, which purchased it August 26, 2014, and he is in negotiation to obtain licensing from BMI at the moment. If you have a specific DMCA request -- please do not hesitate to contact me via the contact button on top. I will do my very best to keep this site fully legal.

Get our toolbar!