Your One-Stop Source For
Music Lyrics
Bass and Guitar Tabs
and More...
Music Lyrics Bass and Guitar Tabs

 

The Tabs Are Below

Learn To Read Tab
Chords Handbook
Corrections & Additions
Get Official Tab
Smashing Pumpkins tabs @ 911Tabs

Song: I'm Going Crazy

Release: Gish

Artist: The Smashing Pumpkins

Author: Eric Agnew (agnew@cae.wisc.edu)

rezlow@aol.com (lead)

Tuning: standard

Notes: hidden track after Daydream

 

-*-*-*-*-*-*-*-*-*-*-*-*-*-*-*-*-*-*-*-*-*-*-*-*-*-*-*-*-*-*-*-*-*-*-*-

 

 

I was surprised that this hadn't been done yet, so I decided

to write it out. :) There's some pretty funky chords used, but

they're rather simple to play... The basic strumming pattern is

just straight eigth notes, strummed down, occassionally doubling

back up for a sixteenth on the last beat of a measure before a

chord change to A2...

 

Chords:

 

G/Bb G/B A2 C2 (end chord)

 

E-(3)--(3)--(0)--(3)-----0-

B-(3)--(3)---0----3------2-

G--0----0----2----0------0-

D--0----0----2----2------0-

A--1----2----0----3------1-

E--------------------------

 

 

G/Bb

I'm going crazy...

 

G/B

I'm going crazy...

 

A2 C2

I - don't want

 

G/Bb

Feelings

 

G/B

Your feelings

 

A2 C2

I - have gone

 

G/Bb

Crazy

 

G/B

Motherfuckin' crazy

 

A2 C2

I - have gone

 

(end chord)

 

That's it...

-Eric

 

-*-*-*-*-

 

LEAD

----

 

br- bend then release

h- hammer on

p- pull off

 

e---10-------------10-------------------10--------------10--------------

B------12--------------12----12~~10\-------12--------10---12----12~~10\-

G---------12br~~------------------------------12br~~--------------------

D-----------------------------------------------------------------------

A-----------------------------------------------------------------------

E-----------------------------------------------------------------------

 

e------10---------------------------------------------------------------

B---------12-------------10h12-10h12-10h12-10h12-12p10---12~~10\--------

G------------12br~~\----------------------------------------------------

D-----------------------------------------------------------------------

A-----------------------------------------------------------------------

E-----------------------------------------------------------------------

 

If anyone is interested in trading SP boots with me please write to me!!

 

thanks

 

rezlow@aol.com

 

 

 

Return to my to my Smashing Pumpkins tabs page

The Tablature is Copyright its respective owners.

Sign Up For My Newsletter
Subscribe | Unsubscribe

Site Map | Disclaimer | Privacy Policy | Media Kit | Submissions/Corrections

Website © 2000-2014 mattsmusicpage.com. All rights reserved.

Legal & DMCA: Matt's Music Page has been providing lyrics and tabs in a legal way, paying royalties each year to a few organizations. Then, all lyrics and tabs were removed from the site. Now, there's a new owner to the site, which purchased it August 26, 2014, and he is in negotiation to obtain licensing from BMI at the moment. If you have a specific DMCA request -- please do not hesitate to contact me via the contact button on top. I will do my very best to keep this site fully legal.

Get our toolbar!