Your One-Stop Source For
Music Lyrics
Bass and Guitar Tabs
and More...
Music Lyrics Bass and Guitar Tabs

 

The Tabs Are Below

Learn To Read Tab
Chords Handbook
Corrections & Additions
Get Official Tab
Smashing Pumpkins tabs @ 911Tabs

Song: Honey Spider II

Release: Pisces Iscariot (special edition US 12")

Artist: The Smashing Pumpkins

Author: Jonathan Frank

Tuning: E ???

 

-*-*-*-*-*-*-*-*-*-*-*-*-*-*-*-*-*-*-*-*-*-*-*-*-*-*-*-*-*-*-*-*-*-*-*-

 

 

----------------------------

----------------------------

--9~9~-9~9~9~-7~7~-7~7~-7~--

----------------------------

----------------------------

----------------------------

 

I'm not sure about this next

part. Two ways sound good.

 

You can play it like this:

 

----------------------------

----------------------------

--9-9--9-9-9--7-7--7-7--7---

--9-9--9-9-9--7-7--7-7--7---

--7-7--7-7-7--5-5--5-5--5---

----------------------------

 

or you can play along with

the bass like this:

 

----------------------------

----------------------------

--2-2--2-2-2--0-0--0-0--0---

--2-2--2-2-2--2-2--2-2--2---

--0-0--0-0-0--3-3--3-3--3---

----------------------------

 

--------

--------

--2-----

--2-----

--0-----

--------

 

----------------------------

----------------------------

--2-2--2-2-2--0-0--0-0--0---

--2-2--2-2-2--2-2--2-2--2---

--0-0--0-0-0--3-3--3-3--3---

----------------------------

 

--------

--------

--2-----

--2-----

--0-----

--------

 

----------------------------

----------------------------

--2-2--2-2-2--0-0--0-0--0---

--2-2--2-2-2--2-2--2-2--2---

--0-0--0-0-0--3-3--3-3--3---

----------------------------

 

 

---------

---------

--2--9---

--2--9---

--0--7---

---------

 

-----------------------------------------------

-----------------------------------------------

--0h2-2/4-4/5-5/7-7/9-9/12-12/15-15~-15br-15~--

-----------------------------------------------

-----------------------------------------------

-----------------------------------------------

 

----------------------------

----------------------------

--2-2--2-2-2--0-0--0-0--0---

--2-2--2-2-2--2-2--2-2--2---

--0-0--0-0-0--3-3--3-3--3---

----------------------------

 

Return to my to my Smashing Pumpkins tabs page

The Tablature is Copyright its respective owners.

Sign Up For My Newsletter
Subscribe | Unsubscribe

Site Map | Disclaimer | Privacy Policy | Media Kit | Submissions/Corrections

Website © 2000-2014 mattsmusicpage.com. All rights reserved.

Legal & DMCA: Matt's Music Page has been providing lyrics and tabs in a legal way, paying royalties each year to a few organizations. Then, all lyrics and tabs were removed from the site. Now, there's a new owner to the site, which purchased it August 26, 2014, and he is in negotiation to obtain licensing from BMI at the moment. If you have a specific DMCA request -- please do not hesitate to contact me via the contact button on top. I will do my very best to keep this site fully legal.

Get our toolbar!