Your One-Stop Source For
Music Lyrics
Bass and Guitar Tabs
and More...
Music Lyrics Bass and Guitar Tabs

 

The Tabs Are Below

Learn To Read Tab
Chords Handbook
Corrections & Additions
Get Official Tab
Smashing Pumpkins tabs @ 911Tabs

Hello Kitty Kat

Smashing Pumpkins

 

 

 

[RIFF 1]: Heavy Distortion

||-------------------------------------------------------------------------|

||-------------------------------------------------------------------------|

||-------------------------------------------------------------------------|

||-4--4-4--4-----4-4--4-4-4--4-----4-4-4--4-4--4-----4-4--4-4-4--4---------|

||-4--4-4--4-----4-4--4-4-4--4-----4-4-4--4-4--4-----4-4--4-4-4--4---------|

||-2--2-2--0h2---2-2--2-2-2--0h2---2-2-2--2-2--0h2---2-2--2-2-2--0h2-------|

 

A little while after [RIFF 1], after the drums come in. Play this little

build up.

 

||-------------------------------------------------------------------------|

||-------------------------------------------------------------------------|

||-------------------------------------------------------------------------|

||-------------------------------------------------------------------------|

||--13---13-13---13-13--13-13-13-13-13-13---14---14-14---14-14--14-14-14-14|

||-------------------------------------------------------------------------|

 

||-------------------------------------------------------------------------|

||-------------------------------------------------------------------------|

||-------------------------------------------------------------------------|

||-------------------------------------------------------------------------|

||-14-14----16---16-16---16-16--16-16-16-16-16-16--[pick scrape]-----------|

||-------------------------------------------------------------------------|

 

Then Just:

[RIFF 1]

Say hello, before you say goodbye

I should go, before you make me cry

She wants to bleed, every drop inside of me

But I aim to please the little girl inside of me, too

 

[RIFF 2]

||-------------------------------------|

||-------------------------------------|

||-------------------------------------|

||--6-------6---6--2---2-2-2-2-2-2-----|

||--6-------6---6--2---2-2-2-2-2-2-----|

||--4-------4---4--0---0-0-0-0-0-0-----|

Yeah, Yeah

You know I hate to say

Oh no, I always stay

I don't wanna be like the others please

Who is sorry now?

Who is sorry now?

If I show you how, we'll let you down.

 

[Small Solo]: you figure out the rhythm, the h's and p's are done FAST.

I'm pretty sure this is right. It sounds right anyways :)

||-------------------------------------------------------------------------|

||-------------------------------------------------------------------------|

||--18~------18h19p18h19~---18h19p18-21~---18h19p18h19~---18h19p18-18~-----|

||-------------------------------------------------------------------------|

||-------------------------------------------------------------------------|

||-------------------------------------------------------------------------|

 

||-------------------------------------------------------------------------|

||-------------------------------------------------------------------------|

||----18h21~~-------18h19p18h19p18---21--18--19~---------------------------|

||-------------------------------------------------------------------------|

||-------------------------------------------------------------------------|

||-------------------------------------------------------------------------|

 

 

[RIFF 1b]

||---------------------|

||---------------------|

||---------------------|

||-9----9-9-9-9-9-2----|

||-9----9-9-9-9-9-2----|

||-7----7-7-7-7-7-0----|

 

[RIFF 1]: But at the end of each line add [RIFF 1b]

 

[RIFF 1] [RIFF1b]

Slit my wrists and die for. . . her.

Love to love to love what you adore

I can give you anything, but pleasing you,

Be your everything... I lose

 

 

[RIFF 2]

Yeah, Yeah

You know I hate to say

Oh no, I always stay

I don't wanna be like the others please

Who is sorry now?

If I show you how,

Will you let me down?

Will you let me down?

Who is sorry now?

Who is sorry NOW!?

 

[RIFF 3]:This is played a couple of times then under the singing.

||-------------------------------------------------------------------------|

||-------------------------------------------------------------------------|

||-------------------------------------------------------------------------|

||11--1111-111111-2--2-2-2-2-2--11--1111-111111-2--2-2-2-7-9---------------|

||11--1111-111111-2--2-2-2-2-2--11--1111-111111-2--2-2-2-7-9---------------|

||-9---9-9--9-9-9-0--0-0-0-0-0---9---9-9--9-9-9-0--0-0-0-5-7---------------|

 

My love is weakness

My love is oh so wrong

My love is sadness

My love is oh so strong

I'll be there when you shout

My love is fucking strong

I'll be with you all night long

 

[Just before the Solo, at the end of last line above, play this for the end]

||----------------------|

||----------------------|

||----------------------|

||11--1111-111111-12----|

||11--1111-111111-12----|

||-9---9-9--9-9-9-10----|

 

 

[guitar solo]: Yah right, YOU figure this out.

 

Ooooh ooooh oooooh

 

[RIFF 2]: Solo is played through this into the outro.

Yeah, Yeah

You know I hate to say

Oh no, I always stay

I don't wanna be like the others please

Who is sorry now?

Who is sorry now?

Who is sorry now?

Girl, I'll show you how,

We'll let you down.

We let you down.

Please let me down.

Please let me doooown.

 

[outro]

 

--------------------------------------------------------------------------------

Hello Kitty Kat

Smashing Pumpkins

 

After the drum intro comes this riff

(Riff A)

e|--------------------------------------------------|

b|--------------------------------------------------|

g|--------------------------------------------------|

d|--4---4---4---4------4---4---4---4----------------|

a|--4---4---4---4------4---4---4---4----------------|

e|--2---2---2---0h2---2---2---2---0h2---------------|

 

This is repeated through the first verse.

 

Then comes the chorus

(RIFF B)

e|--------------------------------------------------|

b|--------------------------------------------------|

g|--------------------------------------------------|

d|---6---6---6---2---2---2---6---6---6---2---2---2--|

a|---6---6---6---2---2---2---6---6---6---2---2---2--|

e|---4---4---4---0---0---0---4---4---4---0---0---0--|

 

 

The second verse goes like this

 

Play Riff A a few times then play;

(I'll call this riff C)

e|-----------------------------------------------|

b|-----------------------------------------------|

g|-----------------------------------------------|

d|---9---9---9---2-------------------------------|

a|---9---9---9---2-------------------------------|

e|---7---7---7---0-------------------------------|

 

For the second chorus it's the same as the first (Riff B) except every once

in a while it adds a B (B=Power chord on 7th fret).

 

Then during the solo the rhythem plays-

RIFF D

e----------------------------------------------------------

b----------------------------------------------------------

g----------------------------------------------------------

d-11-11-11--11---2----11--11--11---11---2---9--------------

a-11-11-11--11---2----11--11--11---11---2---9--------------

e--9---9---9---9----0-----9----9----9----9----0---7--------

 

And (also during solo) plays this

 

e----------------------------------

b----------------------------------

g----------------------------------

d--9--6--6---6---2---2---2--6------

a--9--6--6---6---2---2---2--6------

e--7--4--4---4---0---0---0--4------

 

The strumming patterns aren't very accurate for these.

 

 

WITH RIFF A

Say Hello Before you say goodbye

I should go before you make me cry

She wants to bleed

Every drop inside of me

But I aim to please

The little girl inside of me

To--------------

 

WITH RIFF B

Yeh heh------

Didn't want to hurt yourself

Oh no---------

I always play? (say??,stay??????)

I don't wanna live when we aways win

Who's sorry now?

Who's sorry now?

If I show you how

Will you let me down

 

(SOLO)

 

(I'm very unsure about this part)

WITH RIFF C

Sting the (?) and (?) Oh-------

Love to love to love what you adore--

I can give you in (DON"T KNOW)

To-------------

 

With RIFF B

Same as first chorus

 

RIFF D

My love is madness?

My love is oh so raw

my love is sadness

My love is oh so strong

Might give away the child?

My Love is fucking strong

MORE LYRICS-------

 

Then some moans

Then another chorus

 

Return to my to my Smashing Pumpkins tabs page

The Tablature is Copyright its respective owners.

Sign Up For My Newsletter
Subscribe | Unsubscribe

Site Map | Disclaimer | Privacy Policy | Media Kit | Submissions/Corrections

Website © 2000-2014 mattsmusicpage.com. All rights reserved.

Legal & DMCA: Matt's Music Page has been providing lyrics and tabs in a legal way, paying royalties each year to a few organizations. Then, all lyrics and tabs were removed from the site. Now, there's a new owner to the site, which purchased it August 26, 2014, and he is in negotiation to obtain licensing from BMI at the moment. If you have a specific DMCA request -- please do not hesitate to contact me via the contact button on top. I will do my very best to keep this site fully legal.

Get our toolbar!