Your One-Stop Source For
Music Lyrics
Bass and Guitar Tabs
and More...
Music Lyrics Bass and Guitar Tabs

 

The Tabs Are Below

Learn To Read Tab
Chords Handbook
Corrections & Additions
Get Official Tab
Smashing Pumpkins tabs @ 911Tabs

Song: Falling

Release: Be Strong Now single

Artist: James Iha

Author: Craig Newnes <cnewnes@jetstream.net>

Tuning: 1/2 Step and drop D: Db Ab Db Gb Bb Eb

 

-*-*-*-*-*-*-*-*-*-*-*-*-*-*-*-*-*-*-*-*-*-*-*-*-*-*-*-*-*-*-*-*-*-*-*-

 

Chord Fingerings:

D8 A8/D F#8/D D8/G

E| x x x x

B| x x x x

G| 7 14 11 7

D| x x x x

A| 5 12 9 5

E| 0 0 0 5

Fig1

|---------------------------------------------------|

|---------------------------------------------------|

|-7-7--14--11-11-11-11-11-14-14--9--11-11-11-11-11--|

|---------------------------------------------------|

|-5-5--12--9--9--9--9--9--12-12--7--9--9--9--9--9---|

|-0-0--0---0--0--0--0--0--0--0---0--0--0--0--0--0---|

Fig2

|------------------------------------------------------------------------|

|------------------------------------------------------------------------|

|-14-14-12-12-11-11-11-14-14-9-11--11-11-11-11-11-11--11-11-11-11-11-11--|

|------------------------------------------------------------------------|

|-12-12-10-10-9--9--9--12-12-7-9---9--9--9--9--9--9---9--9--9--9--9--9---|

|-0--0--0--0--0--0--0--0--0--0-0---0--0--0--0--0--0---0--0--0--0--0--0---|

Fig3

|--------------------------|

|--------------------------|

|-14-12-11-11-11-14-14-11--|

|--------------------------|

|-12-10-9--9--9--12-10-9---|

|-0--0--0--0--0--0--0--0---|

Fig4

|-------------------------------------------------------------------------------------------------------------|

|-------------------------------------------------------------------------------------------------------------|

|-4-6-6-7-7-9-9-11--6-7-7-9-9-11-11-12--7-9-9-11-11-12-12-14-14-16-16-14-14-12-12-11-11-12-12-14-14-16-16-18--|

|-------------------------------------------------------------------------------------------------------------|

|-2-4-4-5-5-7-7-9---4-5-5-7-7-9--9--10--5-7-7-9--9--10-10-12-12-14-14-12-12-10-10-9--9--10-10-12-12-14-14-16--|

|-------------------------------------------------------------------------------------------------------------|

Fig1>4x

Fig2

D8/G F#8 G8 F#8

I have no other life and I gave fast into you

D8/G F#8 G8 F#8

wonder where you are now and why don't you care and I always think of

D8/G

all the things that you've seen now

Fig1

If you see me falling

Will you lend a hand

Fig1

If you hear me calling

Will you understand

Fig1

If you see me falling

Will you lend a hand

Fig1

If you hear me calling

I'll understand

Fig2

D8/G F#8 G8 F#8

Ooh I've waited my whole life for you all the things you do are true

D8/G Fig3

I've tried so hard and all I give was all I see is you and me

Fig3

I've tried so hard and all I have dear is

Fig3

See me falling

Will you lend a hand

Fig3

And if you hear me calling

D8/G F#8 Fig3>3x

I'm just so lost without you

Fig4

Soon now

Wait for

The whole world

Will be there with you darling

Fig1>2x

Fig1

If you see me falling

Will you lend a hand

Fig1

If you hear me calling

Will you understand

Fig1

If you see me falling

Will you lend a hand

Fig1

If you hear me calling

Will you understand

Fig1>2x

 

Return to my to my Smashing Pumpkins tabs page

The Tablature is Copyright its respective owners.

Sign Up For My Newsletter
Subscribe | Unsubscribe

Site Map | Disclaimer | Privacy Policy | Media Kit | Submissions/Corrections

Website © 2000-2014 mattsmusicpage.com. All rights reserved.

Legal & DMCA: Matt's Music Page has been providing lyrics and tabs in a legal way, paying royalties each year to a few organizations. Then, all lyrics and tabs were removed from the site. Now, there's a new owner to the site, which purchased it August 26, 2014, and he is in negotiation to obtain licensing from BMI at the moment. If you have a specific DMCA request -- please do not hesitate to contact me via the contact button on top. I will do my very best to keep this site fully legal.

Get our toolbar!

 

1939 LYRIC THEATRE New York PHOTO
$5.83
1939 LYRIC THEATRE New York PHOTO picture


Star Spangled Banner or Marines Hymn lyrics signed by WWII Charles W. Lindberg
$10.0
Star Spangled Banner or Marines Hymn lyrics signed by WWII Charles W. Lindberg picture


OLD LARGE HISTORIC PHOTO OF THE LYRIC THEATRE, SYDNEY c1930s, WAR BONDS BOOTH
$7.42
OLD LARGE HISTORIC PHOTO OF THE LYRIC THEATRE, SYDNEY c1930s, WAR BONDS BOOTH picture


SONG OF REVOLUTION CARD SET WITH 13 MOST FAVORED COMMUNIST SONGS LYRICS + NOTES
$24.99
SONG OF REVOLUTION CARD SET WITH 13 MOST FAVORED COMMUNIST SONGS LYRICS + NOTES picture


OLD LARGE HISTORIC PHOTO OF THE LYRIC THEATRE, SYDNEY c1930s, WAR LOANS BOOTH
$7.42
OLD LARGE HISTORIC PHOTO OF THE LYRIC THEATRE, SYDNEY c1930s, WAR LOANS BOOTH picture