Your One-Stop Source For
Music Lyrics
Bass and Guitar Tabs
and More...
Music Lyrics Bass and Guitar Tabs

 

The Tabs Are Below

Learn To Read Tab
Chords Handbook
Corrections & Additions
Get Official Tab
Smashing Pumpkins tabs @ 911Tabs

Eye

Smashing Pumpkins

 

 

Main Riff

|-----------------4------2--0-----0--------0------|

|------0-------0-----0---------4-----2--0-----0---|

|1--1-----1--3------------------------------------|

|-------------------------------------------------|

|-------------------------------------------------|

|-------------------------------------------------|

 

--------------------------------------------------------------------------------

Eye

Smashing Pumpkins

 

Main Riff

E-----------------------------------------------------

B---------------------------------5--4--5--2--0--4--0-

G---------4-----3--4--1--4----------------------------

D---6--6-----6-----------------4----------------------

A-----------------------------------------------------

E-----------------------------------------------------

 

 

Vocal Line

E------------------------------------------------

B------------------------------------------------

G--4---4--4--6--8--6--4---6--8--6--4--1----4----3

D------------------------------------------------

A------------------------------------------------

E------------------------------------------------

 

 

Ending Riff

E-----------------------------------------------------

B-----------------------------------------------------

G--8--9--8--6--8--6--4--3--6--1-----------------------

D-----------------------------------------------------

A-----------------------------------------------------

E-----------------------------------------------------

 

Return to my to my Smashing Pumpkins tabs page

The Tablature is Copyright its respective owners.

Sign Up For My Newsletter
Subscribe | Unsubscribe

Site Map | Disclaimer | Privacy Policy | Media Kit | Submissions/Corrections

Website © 2000-2014 mattsmusicpage.com. All rights reserved.

Legal & DMCA: Matt's Music Page has been providing lyrics and tabs in a legal way, paying royalties each year to a few organizations. Then, all lyrics and tabs were removed from the site. Now, there's a new owner to the site, which purchased it August 26, 2014, and he is in negotiation to obtain licensing from BMI at the moment. If you have a specific DMCA request -- please do not hesitate to contact me via the contact button on top. I will do my very best to keep this site fully legal.

Get our toolbar!