Your One-Stop Source For
Music Lyrics
Bass and Guitar Tabs
and More...
Music Lyrics Bass and Guitar Tabs

 

The Tabs Are Below

Learn To Read Tab
Chords Handbook
Corrections & Additions
Get Official Tab
Smashing Pumpkins tabs @ 911Tabs

Everlasting Gaze:

 

Tune...Drop every string down 1 whole step..

 

and then drop the low E string down again to a C....

 

~ Is Slide ~

 

Intro: Both guitars

 

------------------------------------------------

 

------------------------------------------------

 

------------------------------------------------

 

--------------------------------------------12//

 

----2~3-----------------2~3---------------12//

 

0-0-----1--1--0----0-0-------1--1--0------12//

 

 

 

 

Riff #1 Guitar 1

 

-----------------------------------

 

-----------------------------------

 

--------------------7-7-7---7-7-7-

 

-----------------------------------

 

----2~3---------------------------

 

0-0-----1--1--0-------------------

 

 

Riff #1Guitar 2

 

---------------------------------

 

---------------------------------

 

---------------------------------

 

------------------3-3-3---3-3-3-

 

----2~3----------3-3-3---3-3-3-

 

0-0------1-1-0---3-3-3---3-3-3-

 

 

Riff #2 (Right b4 chorus) Guitar #1

 

 

---------------------------

 

---------------------------

 

---------------------------

 

---------------------------

 

----2~3-------------------

 

0-0------5--5-3----0-0-0-5

 

 

Riff #2 (b4 chor) Guitar #2

 

 

---------------------------

 

---------------------------

 

---------------------------

 

0-0-7~8-5--5-3----0-0-0-5

 

0-0-7~8-5--5-3----0-0-0-5

 

0-0-7~8-5--5-3----0-0-0-5

 

 

Chor: Both guitars (Each note played 8 times...)

 

------------------------------------------

 

------------------------------------------

 

------------------------------------------

 

3/5/0/0/3/5/0/0/0/0/3/5/0/0/3/3/0/0/3/5/0/

 

3/5/0/0/3/5/0/0/0/0/3/5/0/0/3/3/0/0/3/5/0/

 

3/5/0/0/3/5/0/0/0/0/3/5/0/0/3/3/0/0/3/5/0/

 

 

Riff #3 Guitar 1

 

-----------------------------------------------

 

-----------------------------------------------

 

-----------------------------------------------

 

12-12---12-12---12-12---12-12---12-12-12-12-

 

12-12---12-12---12-12---12-12---12-12-12-12-

 

12-12---12-12---12-12---12-12---12-12-12-12-

 

 

Riff #3 Guitar 2

 

---------------------------------

 

---------------------------------

 

---------------------------------

 

0-0---0-0---0-0---0-0---0-0-0-0-

 

0-0---0-0---0-0---0-0---0-0-0-0-

 

0-0---0-0---0-0---0-0---0-0-0-0-

 

 

Outro: Both Guitars... (Guitar 1 REpeat X4).. (Guitar 2 Repeat X2 then do Riff #3 X2)

 

---------------------------------------

 

---------------------------------------

 

---------0/1/0-------------------------

 

0-0---0--------1-0-----0---0-0--------

 

0-0---0-------------3-----------3-1-0-

 

0-0------------------------------------

 

 

Last Note: Both Guitars...

 

---

 

---

 

---

 

12/

 

12/

 

12/

 

 

 

 

Return to my to my Smashing Pumpkins tabs page

The Tablature is Copyright its respective owners.

Sign Up For My Newsletter
Subscribe | Unsubscribe

Site Map | Disclaimer | Privacy Policy | Media Kit | Submissions/Corrections

Website © 2000-2014 mattsmusicpage.com. All rights reserved.

Legal & DMCA: Matt's Music Page has been providing lyrics and tabs in a legal way, paying royalties each year to a few organizations. Then, all lyrics and tabs were removed from the site. Now, there's a new owner to the site, which purchased it August 26, 2014, and he is in negotiation to obtain licensing from BMI at the moment. If you have a specific DMCA request -- please do not hesitate to contact me via the contact button on top. I will do my very best to keep this site fully legal.

Get our toolbar!

 

Hard Rock Pin Las Vegas 4th of july red white and blue guitar
$5.0
Hard Rock Pin Las Vegas 4th of july red white and blue guitar picture


Hard Rock Pin Hollywood Fl Bell Girl with dice luggage and guitar
$5.0
Hard Rock Pin Hollywood Fl Bell Girl with dice luggage and guitar picture


Hard Rock Pin Las Vegas King of Clubs Guitar rare only 3 lines of info on back
$5.0
Hard Rock Pin Las Vegas King of Clubs Guitar rare only 3 lines of info on back picture


Hard Rock Pin Edmonton guitar pin
$5.0
Hard Rock Pin Edmonton guitar pin picture


Lladro Guitar Boy #4614 - Beautiful Piece of Lladro
$109.0
Lladro Guitar Boy #4614 - Beautiful Piece of Lladro picture