Your One-Stop Source For
Music Lyrics
Bass and Guitar Tabs
and More...
Music Lyrics Bass and Guitar Tabs

 

The Tabs Are Below

Learn To Read Tab
Chords Handbook
Corrections & Additions
Get Official Tab
Smashing Pumpkins tabs @ 911Tabs

The End Is The Beginning Is The End

Smashing Pumpkins

 

 

tune down 1/2 step

 

 

Keyboards and Drums Guitar I w/heavy distortion

Riff A play 3 times End Riff A

|------------------|------------------------------------------|

|------------------|------------------------------------------|

|------------------|*----------------------------------------*|

|------------------|*----------------------------------------*|

|------------------|------------------------------------------|

|------------------|---5B(6)5-3--3--3--6--6B(7)6-0--0--0--0---|

The bends are fast bends and releases

Play the notes in () like grace notes

Riff J End Riff J

---------------------|

---------------------|

---------------------|

---------------------|

---------------------|

---3-5-6-7-6-5-3-0---|

 

 

 

"the sewers belch me up.."

Riff B End Riff B

|--------------------------

|--------------------------

|--------------------------

|--------------------------

|--------------------------

|---0-------3-------/6-----

 

"the heavans spit me out"

|--------------------------

|--------------------------

|--------------------------

|--------------------------

|--------------------------

|---0--------3------/6-----

 

"from ethers tragic I am born again..."

|--------------------------

|--------------------------

|--------------------------

|--------------------------

|--------------------------

|---0--------3-----/6------

 

" and now i'm with you now"

|------------------------------------------|

|------------------------------------------|

|------------------------------------------|

|------------------------------------------|

|------------------------------------------|

|---5B(6)5-3--3--3--6--6B(7)6-0--0--0--0---|

 

" inside your world of wow!"

|------------------------------------------|

|------------------------------------------|

|------------------------------------------|

|------------------------------------------|

|------------------------------------------|

|---5B(6)5-3--3--3--6--6B(7)6-0--0--0--0---|

 

" to move in desires made of"

|------------------------------------------|

|------------------------------------------|

|------------------------------------------|

|------------------------------------------|

|------------------------------------------|

|---5B(6)5-3--3--3--6--6B(7)6-0--0--0--0---|

 

 

 

 

" deadly pretends... till the end times begin"

Riff C End Riff C

|--------------------------------------------------------|

|--------------------------------------------------------|

|--------------------------------------------------------|

|--------------------------------------------------------|

|--------------------------------------------------------|

|--/8---0--1---0--0----------/8------------0--1---0--0---|

 

 

 

"is it bright where you are have the people changed?"

Riff D (Strum through all the chords)

|---------------------------|----------------------------|

|---------------------------|----------------------------|

|---------------------------|---9--------------------7---|

|---7-----------------------|---9--------------------7---|

|---7-----------------------|---7--------------------5---|

|---5-----------------------|---0------------------------|

 

"does it make you happy you're so strange?"

|--------------------------------------------------------|

|--------------------------------------------------------|

|---7----------------------------------------------------|

|---7-------------------7--------------------------------|

|---5-------------------7--------------------------------|

|-----------------------5--------------------------------|

 

" and in your darkest hour, I hold secrets flame"

|---------------------------|----------------------------|

|---------------------------|----------------------------|

|---------------------------|---9--------------------7---|

|---7-----------------------|---9--------------------7---|

|---7-----------------------|---7--------------------5---|

|---5-----------------------|---0------------------------|

 

"you can watch the world devoured in it's pain,"

End Riff D

|--------------------------------------------------------|

|--------------------------------------------------------|

|---7----------------------------------------------------|

|---7-------------------7-----------------2--------------|

|---5-------------------7-----------------2--------------|

|-----------------------5-----------------0--------------|

 

 

 

" strange"

Riff E End Riff E

-------------------------------------------|

-------------------------------------------|

-------------------------------------------|

-------------------------------------------|

-------------------------------------------|

---3-5-6-7-6-5-3-0---------3-5-6-7-6-5-3---|

 

 

 

Guitar II w/wah(?)

"climb my ribcage to the replays run for you"

Riff F

|--------------------------------------------------

|---11-11-12-11-12-11-12-11-11-12-11-12-11-11-12---

|--------------------------------------------------

|--------------------------------------------------

|--------------------------------------------------

|--------------------------------------------------

 

"unhook my lights to peek behind the flash"

End Riff F

--------------------------------------------------|

---11-11-12-11-12-11-12-11-11-12-11-12-11-11-12---|

--------------------------------------------------|

--------------------------------------------------|

--------------------------------------------------|

--------------------------------------------------|

 

 

 

" for I am crystal chrome"

Guitar I

|------------------------------------------|

|------------------------------------------|

|------------------------------------------|

|------------------------------------------|

|------------------------------------------|

|---5B(6)5-3--3--3--6--6B(7)6-0--0--0--0---|

 

 

 

 

" I am shatter dome"

|------------------------------------------|

|------------------------------------------|

|------------------------------------------|

|------------------------------------------|

|------------------------------------------|

|---5B(6)5-3--3--3--6--6B(7)6-0--0--0--0---|

 

 

 

" I am kremlin king of"

|------------------------------------------|

|------------------------------------------|

|------------------------------------------|

|------------------------------------------|

|------------------------------------------|

|---5B(6)5-3--3--3--6--6B(7)7-0--0--0--0---|

 

 

 

" angels avenged to destroy the end..."

|--------------------------------------------------------|

|--------------------------------------------------------|

|--------------------------------------------------------|

|--------------------------------------------------------|

|--------------------------------------------------------|

|--/8---0--1---0--0----------/8------------0--1---0--0---|

 

 

 

"is it bright where you are have the people changed?"

(Strum through all the chords)

|---------------------------|----------------------------|

|---------------------------|----------------------------|

|---------------------------|---9--------------------7---|

|---7-----------------------|---9--------------------7---|

|---7-----------------------|---7--------------------5---|

|---5-----------------------|---0------------------------|

 

"does it make you happy you're so strange?"

|--------------------------------------------------------|

|--------------------------------------------------------|

|---7----------------------------------------------------|

|---7-------------------7--------------------------------|

|---5-------------------7--------------------------------|

|-----------------------5--------------------------------|

 

" and in your darkest hour, I hold secrets flame"

|---------------------------|----------------------------|

|---------------------------|----------------------------|

|---------------------------|---9--------------------7---|

|---7-----------------------|---9--------------------7---|

|---7-----------------------|---7--------------------5---|

|---5-----------------------|---0------------------------|

 

"you can watch the world devoured in it's pain"

|--------------------------------------------------------|

|--------------------------------------------------------|

|---7----------------------------------------------------|

|---7-------------------7-----------------2--------------|

|---5-------------------7-----------------2--------------|

|-----------------------5-----------------0--------------|

 

 

 

Bridge

Riff G

Guitar I w/clean tone

|---8---3---5---1-------1-------8---3---5---1-------1---

|-------------------3-------3-------------------3-------

|-------------------------------------------------------

|-------------------------------------------------------

|-------------------------------------------------------

|-------------------------------------------------------

 

End Riff G

---8---3---5---1-------1-----------------------------|

-------------------3------3-------3---1-------1------|

------------------------------0-----0-----0------0---|

-----------------------------------------------------|

-----------------------------------------------------|

-----------------------------------------------------|

 

 

 

"ahh.............."

Riff H play 3 times

|-------1---------3-----|

|-----3---1-----5---3---|

|*--0---------5--------*|

|*---------------------*|

|-----------------------|

|-----------------------|

 

 

 

 

Riff I

Guitar I w/heavy distortion

|-------------------------------------------

|-------------------------------------------

|------------------------------9-----7------

|-------------------------------------------

|------------------------------7-----5------

|---0--6--6--0--6--6--0--7--0-----0-----0---

|

|Guitar II w/heavy distortion

|-------------------------------------------

|-------------------------------------------

|-------------------------------------------

|-------------------------------------------

|-------------------------------------------

|-------------------------------------------

 

 

Guitar I

|-------------------------------------------

|-------------------------------------------

|------------------------------9-----7------

|-------------------------------------------

|------------------------------7-----5------

|---0--6--6--0--6--6--0--7--0-----0-----0---

|

|Guitar II

|---12----/18-----------(18)\---------------

|-------------------------------------------

|-------------------------------------------

|-------------------------------------------

|-------------------------------------------

|-------------------------------------------

 

 

Guitar I

|-------------------------------------------

|-------------------------------------------

|------------------------------9-----7------

|-------------------------------------------

|------------------------------7-----5------

|---0--6--6--0--6--6--0--7--0-----0-----0---

|

|Guitar II

|---12------/18-------------19----(19)\-----

|-------------------------------------------

|-------------------------------------------

|-------------------------------------------

|-------------------------------------------

|-------------------------------------------

 

 

Guitar I

End Riff I

|----------------------------|

|----------------------------|

|----------------------------|

|----------------------------|

|----------------------------|

|---0--6--6--0--6--6--0--0---|

| |

|Guitar II |

|---12------/18-------19-----|

|----------------------------|

|----------------------------|

|----------------------------|

|----------------------------|

|----------------------------|

 

 

 

"the zeppelins rain upon us

Guitar I

|---------------------------

|---------------------------

|---------------------------

|---------------------------

|---------------------------

|---(0)-------/3----/6---0--

|

|Guitar II

|---(19)-------------------

|--------------------------

|--------------------------

|--------------------------

|--------------------------

|--------------------------

 

 

"the guns of love disastrous"

|---------------------------

|---------------------------

|---------------------------

|---------------------------

|---------------------------

|---(0)------/3---/6-----0--

 

 

"a shadow lies amongst you"

|---------------------------

|---------------------------

|---------------------------

|---------------------------

|---------------------------

|---(0)---/3----/6-----0----

 

 

"to defy the future cast..."

|---------------------------

|---------------------------

|---------------------------

|---------------------------

|---------------------------

|-(0)--/3----/6-------------

 

 

 

"is it bright where you are have the people changed?"

(Strum through all the chords)

|---------------------------|----------------------------|

|---------------------------|----------------------------|

|---------------------------|---9--------------------7---|

|---7-----------------------|---9--------------------7---|

|---7-----------------------|---7--------------------5---|

|---5-----------------------|---0------------------------|

 

"does it make you happy you're so strange?"

|--------------------------------------------------------|

|--------------------------------------------------------|

|---7----------------------------------------------------|

|---7-------------------7--------------------------------|

|---5-------------------7--------------------------------|

|-----------------------5--------------------------------|

 

" and in your darkest hour, I hold secrets flame"

|---------------------------|----------------------------|

|---------------------------|----------------------------|

|---------------------------|---9--------------------7---|

|---7-----------------------|---9--------------------7---|

|---7-----------------------|---7--------------------5---|

|---5-----------------------|---0------------------------|

 

"you can watch the world devoured in it's pain,"

|--------------------------------------------------------|

|--------------------------------------------------------|

|---7----------------------------------------------------|

|---7-------------------7-----------------2--------------|

|---5-------------------7-----------------2--------------|

|-----------------------5-----------------0--------------|

 

 

 

" strange"

Play 5 times begin fade on 4th time Keyboards

|-------------------------------------------|---------|

|-------------------------------------------|---------|

|-------------------------------------------|---------|

|-------------------------------------------|---------|

|-------------------------------------------|---------|

|---3-5-6-7-6-5-3-0---------3-5-6-7-6-5-3-0-|---------|

| | |

|Guitar II | feedback|

|play this 3 times |(pitch: B)

|---12----/18-----------(18)\---------------|---------|

|-------------------------------------------|---------|

|*-----------------------------------------*|---(9)\--|

|*-----------------------------------------*|---------|

|-------------------------------------------|---------|

|-------------------------------------------|---------|

 

 

 

ok here is the riffs with the music:

 

Intro: Riff A

Riff J

 

Riff B

the sewers belch me up...

Riff B

the heavens spit me out...

Riff B

from ethers tragic I am born again...

Riff A

and now i'm with you now

Riff A

inside your world of wow!

Riff A Riff C

to move in desires made of deadly pretends

Riff C

till the end times begin...

 

Riff D

is it bright where you are

have the people changed?

does it make you happy you're so strange?

and in your darkest hour, I hold secrets flame

Riff J

you can watch the world devoured in it's pain,strange

 

Riff F

climb my ribcage to

the replays run for you

unhook my lights to peek behind the flash

Riff A

for I am crystal chrome

Riff A

I am shatter dome

Riff A Riff C

I am kremlin king of angels avenged

Riff C

to destroy the end...

 

Riff D

is it bright where you are

have the people changed?

does it make you happy you're so strange?

and in your darkest hour, I hold secrets flame

you can watch the world devoured in it's pain

 

Bridge: Riff G

Riff H 3 times

 

Riff B

the zeppelins rain upon us

Riff B

the guns of love disastrous

Riff B

a shadow lies amongst you

Riff B

to defy the future cast...

 

Riff D

is it bright where you are

have the people changed?

does it make you happy you're so strange?

and in your darkest hour, I hold secrets flame

you can watch the world devoured in it's pain, strange

 

Outro:Riff J 5 times

 

 

 

Return to my to my Smashing Pumpkins tabs page

The Tablature is Copyright its respective owners.

Sign Up For My Newsletter
Subscribe | Unsubscribe

Site Map | Disclaimer | Privacy Policy | Media Kit | Submissions/Corrections

Website © 2000-2014 mattsmusicpage.com. All rights reserved.

Legal & DMCA: Matt's Music Page has been providing lyrics and tabs in a legal way, paying royalties each year to a few organizations. Then, all lyrics and tabs were removed from the site. Now, there's a new owner to the site, which purchased it August 26, 2014, and he is in negotiation to obtain licensing from BMI at the moment. If you have a specific DMCA request -- please do not hesitate to contact me via the contact button on top. I will do my very best to keep this site fully legal.

Get our toolbar!